  0
SECTION
  2
HEADER
  9
$ACADVER
  1
AC1018
  9
$HANDSEED
  5
FFFFFF
  9
$EXTMAX
 10
7510928.36000000034
 20
5702721.32899999991
 30
1000000.00
  9
$EXTMIN
 10
7509742.04200000036
 20
5701444.33299999964
 30
0.00
  9
$LIMMIN
 10
7509742.04200000036
 20
5701444.33299999964
  9
$LIMMAX
 10
7510928.36000000034
 20
5702721.32899999991
  9
$DIMASZ
 40
2.5
  9
$DIMGAP
 40
0.625
  9
$INSUNITS
 70
6
  9
$MEASUREMENT
 70
1
  9
$DIMEXO
 40
0.625
  9
$DIMTXT
 40
2.5
  9
$DIMSTYLE
  2
Standard
  9
$PLIMMIN
 10
0.0
 20
0.0
  9
$PLIMMAX
 10
210.0
 20
297.0
  9
$DIMEXE
 40
1.25
  9
$TEXTSIZE
 40
2.5
  9
$TEXTSTYLE
  7
Standard
  9
$LWDISPLAY
290
1
  9
$TDCREATE
 40
45678.925221944
  9
$TDUCREATE
 40
45678.883555278
  9
$TDUPDATE
 40
45678.925221944
  9
$TDUUPDATE
 40
45678.883555278
  9
$TDINDWG
 40
0.0
  9
$TDUSRTIMER
 40
0.0
  9
$USRTIMER
 70
1
  0
ENDSEC
  0
SECTION
  2
TABLES
  0
TABLE
  2
VPORT
  5
1
100
AcDbSymbolTable
 70
1
  0
VPORT
  5
2
100
AcDbSymbolTableRecord
100
AcDbViewportTableRecord
  2
*ACTIVE
 70
0
 10
0.0
 20
0.0
 11
1.0
 21
1.0
 12
7510335.201
 22
5702082.831
 13
0.0
 23
0.0
 14
1.0
 24
1.0
 15
0.0
 25
0.0
 16
0.0
 26
0.0
 36
1.0
 17
0.0
 27
0.0
 37
0.0
 40
1276.996
 41
0.929
 42
50.0
 43
0.0
 44
0.0
 50
0.0
 51
0.0
 71
0
 72
100
 73
1
 74
1
 75
0
 76
0
 77
0
 78
0
  0
ENDTAB
  0
TABLE
  2
LTYPE
  5
3
100
AcDbSymbolTable
 70
3
  0
LTYPE
  5
4
100
AcDbSymbolTableRecord
100
AcDbLinetypeTableRecord
  2
ByBlock
 70
0
  3

 72
65
 73
0
 40
0.0
  0
LTYPE
  5
5
100
AcDbSymbolTableRecord
100
AcDbLinetypeTableRecord
  2
ByLayer
 70
0
  3

 72
65
 73
0
 40
0.0
  0
LTYPE
  5
6
100
AcDbSymbolTableRecord
100
AcDbLinetypeTableRecord
  2
CONTINUOUS
 70
0
  3
Solid line
 72
65
 73
0
 40
0.0
  0
LTYPE
  5
7
100
AcDbSymbolTableRecord
100
AcDbLinetypeTableRecord
  2
L_0_05
 70
0
  3
Szczyt_skarpy_nie_umocnionej_Podnoze_skarpy
 72
65
 73
2
 40
1.75
 49
1.25
 74
0
 49
-0.5
 74
0
  0
ENDTAB
  0
TABLE
  2
LAYER
  5
8
100
AcDbSymbolTable
 70
3
  0
LAYER
  5
9
100
AcDbSymbolTableRecord
100
AcDbLayerTableRecord
  2
0
 70
0
420
0
  6
CONTINUOUS
370
18
390
A
  0
LAYER
  5
B
100
AcDbSymbolTableRecord
100
AcDbLayerTableRecord
  2
siatka_pomiarowa
 70
0
420
13762770
  6
CONTINUOUS
370
18
390
A
  0
LAYER
  5
C
100
AcDbSymbolTableRecord
100
AcDbLayerTableRecord
  2
zakres
 70
0
420
255
  6
L_0_05
370
50
390
A
  0
ENDTAB
  0
TABLE
  2
STYLE
  5
D
100
AcDbSymbolTable
 70
2
  0
STYLE
  5
E
100
AcDbSymbolTableRecord
100
AcDbTextStyleTableRecord
  2
STANDARD
 70
0
 40
0.0
 41
1.0
 50
0.0
 71
0
  3
simplex.shx
  4

  0
STYLE
  5
F
100
AcDbSymbolTableRecord
100
AcDbTextStyleTableRecord
  2
STANDARD_ITALIC
 70
0
 40
0.0
 41
1.0
 50
15.0
 71
0
  3
simplex.shx
  4

  0
ENDTAB
  0
TABLE
  2
VIEW
  5
10
100
AcDbSymbolTable
 70
0
  0
ENDTAB
  0
TABLE
  2
UCS
  5
11
100
AcDbSymbolTable
 70
0
  0
ENDTAB
  0
TABLE
  2
APPID
  5
12
100
AcDbSymbolTable
 70
1
  0
APPID
  5
13
100
AcDbSymbolTableRecord
100
AcDbRegAppTableRecord
  2
ACAD
 70
0
  0
ENDTAB
  0
TABLE
  2
DIMSTYLE
  5
14
100
AcDbSymbolTable
 70
1
100
AcDbDimStyleTable
  0
DIMSTYLE
105
15
100
AcDbSymbolTableRecord
100
AcDbDimStyleTableRecord
  2
Standard
 70
0
340
E
  0
ENDTAB
  0
TABLE
  2
BLOCK_RECORD
  5
16
100
AcDbSymbolTable
 70
5
  0
BLOCK_RECORD
  5
17
100
AcDbSymbolTableRecord
100
AcDbBlockTableRecord
  2
*Model_Space
340
18
  0
BLOCK_RECORD
  5
19
100
AcDbSymbolTableRecord
100
AcDbBlockTableRecord
  2
*Paper_Space
340
1A
  0
BLOCK_RECORD
  5
1B
100
AcDbSymbolTableRecord
100
AcDbBlockTableRecord
  2
OSHB
340
1C
  0
BLOCK_RECORD
  5
1D
100
AcDbSymbolTableRecord
100
AcDbBlockTableRecord
  2
OSSP
340
1E
  0
BLOCK_RECORD
  5
1F
100
AcDbSymbolTableRecord
100
AcDbBlockTableRecord
  2
OSSH
340
20
  0
ENDTAB
  0
ENDSEC
  0
SECTION
  2
BLOCKS
  0
BLOCK
  5
21
100
AcDbEntity
  8
0
100
AcDbBlockBegin
  2
*Model_Space
 70
0
 10
0.0
 20
0.0
 30
0.0
  3
*Model_Space
  1

  0
ENDBLK
  5
22
100
AcDbEntity
  8
0
100
AcDbBlockEnd
  0
BLOCK
  5
23
100
AcDbEntity
 67
1
  8
0
100
AcDbBlockBegin
  2
*Paper_Space
 70
0
 10
0.0
 20
0.0
 30
0.0
  3
*Paper_Space
  1

  0
ENDBLK
  5
24
100
AcDbEntity
 67
1
  8
0
100
AcDbBlockEnd
  0
BLOCK
  5
1C
100
AcDbEntity
  8
0
100
AcDbBlockBegin
 62
0
370
13
  2
OSHB
 70
0
 10
0
 20
0
 30
0
  3
OSHB
  0
HATCH
  5
25
100
AcDbEntity
  8
0
  6
CONTINUOUS
 62
0
370
18
100
AcDbHatch
 10
0.0
 20
0.0
 30
0.0
210
0.0
220
0.0
230
1.0
  2
SOLID
 70
1
 71
1
 91
1
 92
3
 72
0
 73
1
 93
4
 10
-1.7
 20
1.0
 10
1.7
 20
1.0
 10
0.0
 20
-2.0
 10
-1.7
 20
0.9
 97
0
 75
0
 76
1
 98
0
  0
POLYLINE
  5
26
100
AcDbEntity
  8
0
  6
CONTINUOUS
 62
0
370
18
100
AcDb2dPolyline
 66
1
 70
129
  0
VERTEX
  5
27
100
AcDbEntity
  8
0
100
AcDbVertex
100
AcDb2dVertex
 10
-1.7
 20
1.0
  0
VERTEX
  5
28
100
AcDbEntity
  8
0
100
AcDbVertex
100
AcDb2dVertex
 10
1.7
 20
1.0
  0
VERTEX
  5
29
100
AcDbEntity
  8
0
100
AcDbVertex
100
AcDb2dVertex
 10
0.0
 20
-2.0
  0
VERTEX
  5
2A
100
AcDbEntity
  8
0
100
AcDbVertex
100
AcDb2dVertex
 10
-1.7
 20
0.9
  0
SEQEND
  5
2B
100
AcDbEntity
  8
0
  0
ENDBLK
  5
2C
100
AcDbEntity
  8
0
100
AcDbBlockEnd
  0
BLOCK
  5
1E
100
AcDbEntity
  8
0
100
AcDbBlockBegin
 62
0
370
13
  2
OSSP
 70
0
 10
0
 20
0
 30
0
  3
OSSP
  0
POLYLINE
  5
2D
100
AcDbEntity
  8
0
  6
CONTINUOUS
 62
0
370
18
100
AcDb2dPolyline
 66
1
 70
129
  0
VERTEX
  5
2E
100
AcDbEntity
  8
0
100
AcDbVertex
100
AcDb2dVertex
 10
-1.2
 20
1.3
  0
VERTEX
  5
2F
100
AcDbEntity
  8
0
100
AcDbVertex
100
AcDb2dVertex
 10
1.3
 20
1.3
  0
VERTEX
  5
30
100
AcDbEntity
  8
0
100
AcDbVertex
100
AcDb2dVertex
 10
1.3
 20
-1.2
  0
VERTEX
  5
31
100
AcDbEntity
  8
0
100
AcDbVertex
100
AcDb2dVertex
 10
-1.2
 20
-1.2
  0
VERTEX
  5
32
100
AcDbEntity
  8
0
100
AcDbVertex
100
AcDb2dVertex
 10
-1.2
 20
1.3
  0
SEQEND
  5
33
100
AcDbEntity
  8
0
  0
POLYLINE
  5
34
100
AcDbEntity
  8
0
  6
CONTINUOUS
 62
0
370
18
100
AcDb2dPolyline
 66
1
 70
128
  0
VERTEX
  5
35
100
AcDbEntity
  8
0
100
AcDbVertex
100
AcDb2dVertex
 10
-0.4
 20
-0.0
  0
VERTEX
  5
36
100
AcDbEntity
  8
0
100
AcDbVertex
100
AcDb2dVertex
 10
0.4
 20
-0.0
  0
SEQEND
  5
37
100
AcDbEntity
  8
0
  0
POLYLINE
  5
38
100
AcDbEntity
  8
0
  6
CONTINUOUS
 62
0
370
18
100
AcDb2dPolyline
 66
1
 70
128
  0
VERTEX
  5
39
100
AcDbEntity
  8
0
100
AcDbVertex
100
AcDb2dVertex
 10
0.0
 20
0.4
  0
VERTEX
  5
3A
100
AcDbEntity
  8
0
100
AcDbVertex
100
AcDb2dVertex
 10
0.0
 20
-0.4
  0
SEQEND
  5
3B
100
AcDbEntity
  8
0
  0
ENDBLK
  5
3C
100
AcDbEntity
  8
0
100
AcDbBlockEnd
  0
BLOCK
  5
20
100
AcDbEntity
  8
0
100
AcDbBlockBegin
 62
0
370
13
  2
OSSH
 70
0
 10
0
 20
0
 30
0
  3
OSSH
  0
POLYLINE
  5
3D
100
AcDbEntity
  8
0
  6
CONTINUOUS
 62
0
370
18
100
AcDb2dPolyline
 66
1
 70
129
  0
VERTEX
  5
3E
100
AcDbEntity
  8
0
100
AcDbVertex
100
AcDb2dVertex
 10
-1.2
 20
0.9
  0
VERTEX
  5
3F
100
AcDbEntity
  8
0
100
AcDbVertex
100
AcDb2dVertex
 10
0.0
 20
-1.5
  0
VERTEX
  5
40
100
AcDbEntity
  8
0
100
AcDbVertex
100
AcDb2dVertex
 10
1.3
 20
0.9
  0
VERTEX
  5
41
100
AcDbEntity
  8
0
100
AcDbVertex
100
AcDb2dVertex
 10
-1.2
 20
0.9
  0
SEQEND
  5
42
100
AcDbEntity
  8
0
  0
POLYLINE
  5
43
100
AcDbEntity
  8
0
  6
CONTINUOUS
 62
0
370
18
100
AcDb2dPolyline
 66
1
 70
128
  0
VERTEX
  5
44
100
AcDbEntity
  8
0
100
AcDbVertex
100
AcDb2dVertex
 10
0.0
 20
0.3
  0
VERTEX
  5
45
100
AcDbEntity
  8
0
100
AcDbVertex
100
AcDb2dVertex
 10
0.0
 20
-0.3
  0
SEQEND
  5
46
100
AcDbEntity
  8
0
  0
POLYLINE
  5
47
100
AcDbEntity
  8
0
  6
CONTINUOUS
 62
0
370
18
100
AcDb2dPolyline
 66
1
 70
128
  0
VERTEX
  5
48
100
AcDbEntity
  8
0
100
AcDbVertex
100
AcDb2dVertex
 10
-0.3
 20
-0.0
  0
VERTEX
  5
49
100
AcDbEntity
  8
0
100
AcDbVertex
100
AcDb2dVertex
 10
0.3
 20
-0.0
  0
SEQEND
  5
4A
100
AcDbEntity
  8
0
  0
ENDBLK
  5
4B
100
AcDbEntity
  8
0
100
AcDbBlockEnd
  0
ENDSEC
  0
SECTION
  2
ENTITIES
  0
POLYLINE
  5
4C
100
AcDbEntity
  8
siatka_pomiarowa
  6
CONTINUOUS
370
18
100
AcDb2dPolyline
 66
1
 70
128
  0
VERTEX
  5
4D
100
AcDbEntity
  8
siatka_pomiarowa
100
AcDbVertex
100
AcDb2dVertex
 10
7509900.45999999996
 20
5702037.24000000022
  0
VERTEX
  5
4E
100
AcDbEntity
  8
siatka_pomiarowa
100
AcDbVertex
100
AcDb2dVertex
 10
7510017.08000026923
 20
5702060.19999968447
  0
SEQEND
  5
4F
100
AcDbEntity
  8
siatka_pomiarowa
  0
POLYLINE
  5
50
100
AcDbEntity
  8
siatka_pomiarowa
  6
CONTINUOUS
370
18
100
AcDb2dPolyline
 66
1
 70
128
  0
VERTEX
  5
51
100
AcDbEntity
  8
siatka_pomiarowa
100
AcDbVertex
100
AcDb2dVertex
 10
7509902.39155935776
 20
5702027.42909179814
  0
VERTEX
  5
52
100
AcDbEntity
  8
siatka_pomiarowa
100
AcDbVertex
100
AcDb2dVertex
 10
7510020.12771866564
 20
5702050.61954913288
  0
SEQEND
  5
53
100
AcDbEntity
  8
siatka_pomiarowa
  0
POLYLINE
  5
54
100
AcDbEntity
  8
siatka_pomiarowa
  6
CONTINUOUS
370
18
100
AcDb2dPolyline
 66
1
 70
128
  0
VERTEX
  5
55
100
AcDbEntity
  8
siatka_pomiarowa
100
AcDbVertex
100
AcDb2dVertex
 10
7509904.32355935872
 20
5702017.6180917928
  0
VERTEX
  5
56
100
AcDbEntity
  8
siatka_pomiarowa
100
AcDbVertex
100
AcDb2dVertex
 10
7510022.06798357144
 20
5702040.80198491365
  0
SEQEND
  5
57
100
AcDbEntity
  8
siatka_pomiarowa
  0
POLYLINE
  5
58
100
AcDbEntity
  8
siatka_pomiarowa
  6
CONTINUOUS
370
18
100
AcDb2dPolyline
 66
1
 70
128
  0
VERTEX
  5
59
100
AcDbEntity
  8
siatka_pomiarowa
100
AcDbVertex
100
AcDb2dVertex
 10
7509906.25511871744
 20
5702007.80718358513
  0
VERTEX
  5
5A
100
AcDbEntity
  8
siatka_pomiarowa
100
AcDbVertex
100
AcDb2dVertex
 10
7510024.00687721465
 20
5702030.99135915562
  0
SEQEND
  5
5B
100
AcDbEntity
  8
siatka_pomiarowa
  0
POLYLINE
  5
5C
100
AcDbEntity
  8
siatka_pomiarowa
  6
CONTINUOUS
370
18
100
AcDb2dPolyline
 66
1
 70
128
  0
VERTEX
  5
5D
100
AcDbEntity
  8
siatka_pomiarowa
100
AcDbVertex
100
AcDb2dVertex
 10
7509908.18667807709
 20
5701997.99627537839
  0
VERTEX
  5
5E
100
AcDbEntity
  8
siatka_pomiarowa
100
AcDbVertex
100
AcDb2dVertex
 10
7510025.94151346386
 20
5702021.20227542706
  0
SEQEND
  5
5F
100
AcDbEntity
  8
siatka_pomiarowa
  0
POLYLINE
  5
60
100
AcDbEntity
  8
siatka_pomiarowa
  6
CONTINUOUS
370
18
100
AcDb2dPolyline
 66
1
 70
128
  0
VERTEX
  5
61
100
AcDbEntity
  8
siatka_pomiarowa
100
AcDbVertex
100
AcDb2dVertex
 10
7509910.11823743582
 20
5701988.18536717165
  0
VERTEX
  5
62
100
AcDbEntity
  8
siatka_pomiarowa
100
AcDbVertex
100
AcDb2dVertex
 10
7510026.73823765665
 20
5702011.1453660531
  0
SEQEND
  5
63
100
AcDbEntity
  8
siatka_pomiarowa
  0
POLYLINE
  5
64
100
AcDbEntity
  8
siatka_pomiarowa
  6
CONTINUOUS
370
18
100
AcDb2dPolyline
 66
1
 70
128
  0
VERTEX
  5
65
100
AcDbEntity
  8
siatka_pomiarowa
100
AcDbVertex
100
AcDb2dVertex
 10
7509912.04979679454
 20
5701978.37445896491
  0
VERTEX
  5
66
100
AcDbEntity
  8
siatka_pomiarowa
100
AcDbVertex
100
AcDb2dVertex
 10
7509996.94630337506
 20
5701995.0887761293
  0
SEQEND
  5
67
100
AcDbEntity
  8
siatka_pomiarowa
  0
POLYLINE
  5
68
100
AcDbEntity
  8
siatka_pomiarowa
  6
CONTINUOUS
370
18
100
AcDb2dPolyline
 66
1
 70
128
  0
VERTEX
  5
69
100
AcDbEntity
  8
siatka_pomiarowa
100
AcDbVertex
100
AcDb2dVertex
 10
7509913.98135615326
 20
5701968.56355075724
  0
VERTEX
  5
6A
100
AcDbEntity
  8
siatka_pomiarowa
100
AcDbVertex
100
AcDb2dVertex
 10
7509968.85614653956
 20
5701979.39548185654
  0
SEQEND
  5
6B
100
AcDbEntity
  8
siatka_pomiarowa
  0
POLYLINE
  5
6C
100
AcDbEntity
  8
siatka_pomiarowa
  6
CONTINUOUS
370
18
100
AcDb2dPolyline
 66
1
 70
128
  0
VERTEX
  5
6D
100
AcDbEntity
  8
siatka_pomiarowa
100
AcDbVertex
100
AcDb2dVertex
 10
7509915.91291551292
 20
5701958.75264255051
  0
VERTEX
  5
6E
100
AcDbEntity
  8
siatka_pomiarowa
100
AcDbVertex
100
AcDb2dVertex
 10
7509940.67068904359
 20
5701963.60446821246
  0
SEQEND
  5
6F
100
AcDbEntity
  8
siatka_pomiarowa
  0
POLYLINE
  5
70
100
AcDbEntity
  8
siatka_pomiarowa
  6
CONTINUOUS
370
18
100
AcDb2dPolyline
 66
1
 70
128
  0
VERTEX
  5
71
100
AcDbEntity
  8
siatka_pomiarowa
100
AcDbVertex
100
AcDb2dVertex
 10
7509900.45999999996
 20
5702037.24000000022
  0
VERTEX
  5
72
100
AcDbEntity
  8
siatka_pomiarowa
100
AcDbVertex
100
AcDb2dVertex
 10
7509917.50857526716
 20
5701950.62780268583
  0
SEQEND
  5
73
100
AcDbEntity
  8
siatka_pomiarowa
  0
POLYLINE
  5
74
100
AcDbEntity
  8
siatka_pomiarowa
  6
CONTINUOUS
370
18
100
AcDb2dPolyline
 66
1
 70
128
  0
VERTEX
  5
75
100
AcDbEntity
  8
siatka_pomiarowa
100
AcDbVertex
100
AcDb2dVertex
 10
7509910.27097394504
 20
5702039.1712254053
  0
VERTEX
  5
76
100
AcDbEntity
  8
siatka_pomiarowa
100
AcDbVertex
100
AcDb2dVertex
 10
7509926.68785033934
 20
5701955.77052772138
  0
SEQEND
  5
77
100
AcDbEntity
  8
siatka_pomiarowa
  0
POLYLINE
  5
78
100
AcDbEntity
  8
siatka_pomiarowa
  6
CONTINUOUS
370
18
100
AcDb2dPolyline
 66
1
 70
128
  0
VERTEX
  5
79
100
AcDbEntity
  8
siatka_pomiarowa
100
AcDbVertex
100
AcDb2dVertex
 10
7509920.08194788918
 20
5702041.10245081037
  0
VERTEX
  5
7A
100
AcDbEntity
  8
siatka_pomiarowa
100
AcDbVertex
100
AcDb2dVertex
 10
7509935.86670788284
 20
5701960.91301883478
  0
SEQEND
  5
7B
100
AcDbEntity
  8
siatka_pomiarowa
  0
POLYLINE
  5
7C
100
AcDbEntity
  8
siatka_pomiarowa
  6
CONTINUOUS
370
18
100
AcDb2dPolyline
 66
1
 70
128
  0
VERTEX
  5
7D
100
AcDbEntity
  8
siatka_pomiarowa
100
AcDbVertex
100
AcDb2dVertex
 10
7509929.89292183425
 20
5702043.03367621545
  0
VERTEX
  5
7E
100
AcDbEntity
  8
siatka_pomiarowa
100
AcDbVertex
100
AcDb2dVertex
 10
7509945.04556542262
 20
5701966.05550994631
  0
SEQEND
  5
7F
100
AcDbEntity
  8
siatka_pomiarowa
  0
POLYLINE
  5
80
100
AcDbEntity
  8
siatka_pomiarowa
  6
CONTINUOUS
370
18
100
AcDb2dPolyline
 66
1
 70
128
  0
VERTEX
  5
81
100
AcDbEntity
  8
siatka_pomiarowa
100
AcDbVertex
100
AcDb2dVertex
 10
7509939.70389577933
 20
5702044.96490162052
  0
VERTEX
  5
82
100
AcDbEntity
  8
siatka_pomiarowa
100
AcDbVertex
100
AcDb2dVertex
 10
7509954.22442295961
 20
5701971.19800105598
  0
SEQEND
  5
83
100
AcDbEntity
  8
siatka_pomiarowa
  0
POLYLINE
  5
84
100
AcDbEntity
  8
siatka_pomiarowa
  6
CONTINUOUS
370
18
100
AcDb2dPolyline
 66
1
 70
128
  0
VERTEX
  5
85
100
AcDbEntity
  8
siatka_pomiarowa
100
AcDbVertex
100
AcDb2dVertex
 10
7509949.51486972347
 20
5702046.8961270256
  0
VERTEX
  5
86
100
AcDbEntity
  8
siatka_pomiarowa
100
AcDbVertex
100
AcDb2dVertex
 10
7509963.4032804938
 20
5701976.34049216378
  0
SEQEND
  5
87
100
AcDbEntity
  8
siatka_pomiarowa
  0
POLYLINE
  5
88
100
AcDbEntity
  8
siatka_pomiarowa
  6
CONTINUOUS
370
18
100
AcDb2dPolyline
 66
1
 70
128
  0
VERTEX
  5
89
100
AcDbEntity
  8
siatka_pomiarowa
100
AcDbVertex
100
AcDb2dVertex
 10
7509959.32584366854
 20
5702048.82735243067
  0
VERTEX
  5
8A
100
AcDbEntity
  8
siatka_pomiarowa
100
AcDbVertex
100
AcDb2dVertex
 10
7509972.5821380252
 20
5701981.48298327066
  0
SEQEND
  5
8B
100
AcDbEntity
  8
siatka_pomiarowa
  0
POLYLINE
  5
8C
100
AcDbEntity
  8
siatka_pomiarowa
  6
CONTINUOUS
370
18
100
AcDb2dPolyline
 66
1
 70
128
  0
VERTEX
  5
8D
100
AcDbEntity
  8
siatka_pomiarowa
100
AcDbVertex
100
AcDb2dVertex
 10
7509969.13681761362
 20
5702050.75857783575
  0
VERTEX
  5
8E
100
AcDbEntity
  8
siatka_pomiarowa
100
AcDbVertex
100
AcDb2dVertex
 10
7509981.76099555474
 20
5701986.6254743766
  0
SEQEND
  5
8F
100
AcDbEntity
  8
siatka_pomiarowa
  0
POLYLINE
  5
90
100
AcDbEntity
  8
siatka_pomiarowa
  6
CONTINUOUS
370
18
100
AcDb2dPolyline
 66
1
 70
128
  0
VERTEX
  5
91
100
AcDbEntity
  8
siatka_pomiarowa
100
AcDbVertex
100
AcDb2dVertex
 10
7509978.94779155776
 20
5702052.68980323989
  0
VERTEX
  5
92
100
AcDbEntity
  8
siatka_pomiarowa
100
AcDbVertex
100
AcDb2dVertex
 10
7509990.8942491347
 20
5701991.74241568893
  0
SEQEND
  5
93
100
AcDbEntity
  8
siatka_pomiarowa
  0
POLYLINE
  5
94
100
AcDbEntity
  8
siatka_pomiarowa
  6
CONTINUOUS
370
18
100
AcDb2dPolyline
 66
1
 70
128
  0
VERTEX
  5
95
100
AcDbEntity
  8
siatka_pomiarowa
100
AcDbVertex
100
AcDb2dVertex
 10
7509988.75876550283
 20
5702054.62102864496
  0
VERTEX
  5
96
100
AcDbEntity
  8
siatka_pomiarowa
100
AcDbVertex
100
AcDb2dVertex
 10
7510000.11871060356
 20
5701996.91045658104
  0
SEQEND
  5
97
100
AcDbEntity
  8
siatka_pomiarowa
  0
POLYLINE
  5
98
100
AcDbEntity
  8
siatka_pomiarowa
  6
CONTINUOUS
370
18
100
AcDb2dPolyline
 66
1
 70
128
  0
VERTEX
  5
99
100
AcDbEntity
  8
siatka_pomiarowa
100
AcDbVertex
100
AcDb2dVertex
 10
7509998.56973944698
 20
5702056.55225405004
  0
VERTEX
  5
9A
100
AcDbEntity
  8
siatka_pomiarowa
100
AcDbVertex
100
AcDb2dVertex
 10
7510009.29756812379
 20
5702002.05294768233
  0
SEQEND
  5
9B
100
AcDbEntity
  8
siatka_pomiarowa
  0
POLYLINE
  5
9C
100
AcDbEntity
  8
siatka_pomiarowa
  6
CONTINUOUS
370
18
100
AcDb2dPolyline
 66
1
 70
128
  0
VERTEX
  5
9D
100
AcDbEntity
  8
siatka_pomiarowa
100
AcDbVertex
100
AcDb2dVertex
 10
7510008.38071339205
 20
5702058.48347945511
  0
VERTEX
  5
9E
100
AcDbEntity
  8
siatka_pomiarowa
100
AcDbVertex
100
AcDb2dVertex
 10
7510018.51336949226
 20
5702007.2161367191
  0
SEQEND
  5
9F
100
AcDbEntity
  8
siatka_pomiarowa
  0
POLYLINE
  5
A0
100
AcDbEntity
  8
siatka_pomiarowa
  6
CONTINUOUS
370
18
100
AcDb2dPolyline
 66
1
 70
128
  0
VERTEX
  5
A1
100
AcDbEntity
  8
siatka_pomiarowa
100
AcDbVertex
100
AcDb2dVertex
 10
7510018.19050542079
 20
5702060.42167222407
  0
VERTEX
  5
A2
100
AcDbEntity
  8
siatka_pomiarowa
100
AcDbVertex
100
AcDb2dVertex
 10
7510027.68892291281
 20
5702012.36054230481
  0
SEQEND
  5
A3
100
AcDbEntity
  8
siatka_pomiarowa
  0
POLYLINE
  5
A4
100
AcDbEntity
  8
0
  6
CONTINUOUS
420
255
370
18
100
AcDb2dPolyline
 66
1
 70
129
  0
VERTEX
  5
A5
100
AcDbEntity
  8
0
100
AcDbVertex
100
AcDb2dVertex
 10
7510020.6799999997
 20
5702008.4299999997
  0
VERTEX
  5
A6
100
AcDbEntity
  8
0
100
AcDbVertex
100
AcDb2dVertex
 10
7509917.50857526716
 20
5701950.62780268583
  0
VERTEX
  5
A7
100
AcDbEntity
  8
0
100
AcDbVertex
100
AcDb2dVertex
 10
7509917.38860726822
 20
5701951.2176816836
  0
VERTEX
  5
A8
100
AcDbEntity
  8
0
100
AcDbVertex
100
AcDb2dVertex
 10
7509900.45999999996
 20
5702037.24000000022
  0
VERTEX
  5
A9
100
AcDbEntity
  8
0
100
AcDbVertex
100
AcDb2dVertex
 10
7509998.13999999966
 20
5702056.46999999974
  0
SEQEND
  5
AA
100
AcDbEntity
  8
0
  0
POLYLINE
  5
AB
100
AcDbEntity
  8
0
  6
CONTINUOUS
370
18
100
AcDb2dPolyline
 66
1
 70
129
  0
VERTEX
  5
AC
100
AcDbEntity
  8
0
100
AcDbVertex
100
AcDb2dVertex
 10
7509900.45999999996
 20
5702037.24000000022
  0
VERTEX
  5
AD
100
AcDbEntity
  8
0
100
AcDbVertex
100
AcDb2dVertex
 10
7509886.41692726687
 20
5702108.53988568205
  0
VERTEX
  5
AE
100
AcDbEntity
  8
0
100
AcDbVertex
100
AcDb2dVertex
 10
7509886.06000026688
 20
5702110.40999968257
  0
VERTEX
  5
AF
100
AcDbEntity
  8
0
100
AcDbVertex
100
AcDb2dVertex
 10
7509964.79000026826
 20
5702127.52999968361
  0
VERTEX
  5
B0
100
AcDbEntity
  8
0
100
AcDbVertex
100
AcDb2dVertex
 10
7509998.13999999966
 20
5702056.46999999974
  0
SEQEND
  5
B1
100
AcDbEntity
  8
0
  0
POLYLINE
  5
B2
100
AcDbEntity
  8
0
  6
CONTINUOUS
370
18
100
AcDb2dPolyline
 66
1
 70
129
  0
VERTEX
  5
B3
100
AcDbEntity
  8
0
100
AcDbVertex
100
AcDb2dVertex
 10
7510004.15865326859
 20
5702092.67195668351
  0
VERTEX
  5
B4
100
AcDbEntity
  8
0
100
AcDbVertex
100
AcDb2dVertex
 10
7510017.08000026923
 20
5702060.19999968447
  0
VERTEX
  5
B5
100
AcDbEntity
  8
0
100
AcDbVertex
100
AcDb2dVertex
 10
7510006.50000026822
 20
5702058.1199996816
  0
VERTEX
  5
B6
100
AcDbEntity
  8
0
100
AcDbVertex
100
AcDb2dVertex
 10
7509972.98000026867
 20
5702129.1299996851
  0
VERTEX
  5
B7
100
AcDbEntity
  8
0
100
AcDbVertex
100
AcDb2dVertex
 10
7509979.54000026826
 20
5702130.41999968141
  0
VERTEX
  5
B8
100
AcDbEntity
  8
0
100
AcDbVertex
100
AcDb2dVertex
 10
7509986.56000026781
 20
5702131.78999968059
  0
SEQEND
  5
B9
100
AcDbEntity
  8
0
  0
POLYLINE
  5
BA
100
AcDbEntity
  8
0
  6
CONTINUOUS
370
18
100
AcDb2dPolyline
 66
1
 70
129
  0
VERTEX
  5
BB
100
AcDbEntity
  8
0
100
AcDbVertex
100
AcDb2dVertex
 10
7510017.08000026923
 20
5702060.19999968447
  0
VERTEX
  5
BC
100
AcDbEntity
  8
0
100
AcDbVertex
100
AcDb2dVertex
 10
7510017.43681426905
 20
5702059.28726168349
  0
VERTEX
  5
BD
100
AcDbEntity
  8
0
100
AcDbVertex
100
AcDb2dVertex
 10
7510037.35438126884
 20
5702019.5337406816
  0
VERTEX
  5
BE
100
AcDbEntity
  8
0
100
AcDbVertex
100
AcDb2dVertex
 10
7510037.71433826815
 20
5702018.81382668111
  0
VERTEX
  5
BF
100
AcDbEntity
  8
0
100
AcDbVertex
100
AcDb2dVertex
 10
7510038.04429826792
 20
5702018.16390368436
  0
VERTEX
  5
C0
100
AcDbEntity
  8
0
100
AcDbVertex
100
AcDb2dVertex
 10
7510028.010000268
 20
5702012.53999968152
  0
VERTEX
  5
C1
100
AcDbEntity
  8
0
100
AcDbVertex
100
AcDb2dVertex
 10
7510006.50000026822
 20
5702058.1199996816
  0
SEQEND
  5
C2
100
AcDbEntity
  8
0
  0
POLYLINE
  5
C3
100
AcDbEntity
  8
0
  6
CONTINUOUS
370
18
100
AcDb2dPolyline
 66
1
 70
129
  0
VERTEX
  5
C4
100
AcDbEntity
  8
0
100
AcDbVertex
100
AcDb2dVertex
 10
7510025.04000026919
 20
5702010.87999968324
  0
VERTEX
  5
C5
100
AcDbEntity
  8
0
100
AcDbVertex
100
AcDb2dVertex
 10
7510020.6799999997
 20
5702008.4299999997
  0
VERTEX
  5
C6
100
AcDbEntity
  8
0
100
AcDbVertex
100
AcDb2dVertex
 10
7509998.13999999966
 20
5702056.46999999974
  0
VERTEX
  5
C7
100
AcDbEntity
  8
0
100
AcDbVertex
100
AcDb2dVertex
 10
7510003.07000026852
 20
5702057.43999968376
  0
SEQEND
  5
C8
100
AcDbEntity
  8
0
  0
POLYLINE
  5
C9
100
AcDbEntity
  8
0
  6
CONTINUOUS
370
18
100
AcDb2dPolyline
 66
1
 70
129
  0
VERTEX
  5
CA
100
AcDbEntity
  8
0
100
AcDbVertex
100
AcDb2dVertex
 10
7509998.13999999966
 20
5702056.46999999974
  0
VERTEX
  5
CB
100
AcDbEntity
  8
0
100
AcDbVertex
100
AcDb2dVertex
 10
7509964.79000026826
 20
5702127.52999968361
  0
VERTEX
  5
CC
100
AcDbEntity
  8
0
100
AcDbVertex
100
AcDb2dVertex
 10
7509969.57000026852
 20
5702128.45999968331
  0
VERTEX
  5
CD
100
AcDbEntity
  8
0
100
AcDbVertex
100
AcDb2dVertex
 10
7510003.07000026852
 20
5702057.43999968376
  0
SEQEND
  5
CE
100
AcDbEntity
  8
0
  0
POLYLINE
  5
CF
100
AcDbEntity
  8
0
  6
CONTINUOUS
370
18
100
AcDb2dPolyline
 66
1
 70
129
  0
VERTEX
  5
D0
100
AcDbEntity
  8
0
100
AcDbVertex
100
AcDb2dVertex
 10
7510003.07000026852
 20
5702057.43999968376
  0
VERTEX
  5
D1
100
AcDbEntity
  8
0
100
AcDbVertex
100
AcDb2dVertex
 10
7509969.57000026852
 20
5702128.45999968331
  0
VERTEX
  5
D2
100
AcDbEntity
  8
0
100
AcDbVertex
100
AcDb2dVertex
 10
7509972.98000026867
 20
5702129.1299996851
  0
VERTEX
  5
D3
100
AcDbEntity
  8
0
100
AcDbVertex
100
AcDb2dVertex
 10
7510006.50000026822
 20
5702058.1199996816
  0
SEQEND
  5
D4
100
AcDbEntity
  8
0
  0
POLYLINE
  5
D5
100
AcDbEntity
  8
0
  6
CONTINUOUS
370
18
100
AcDb2dPolyline
 66
1
 70
129
  0
VERTEX
  5
D6
100
AcDbEntity
  8
0
100
AcDbVertex
100
AcDb2dVertex
 10
7510028.010000268
 20
5702012.53999968152
  0
VERTEX
  5
D7
100
AcDbEntity
  8
0
100
AcDbVertex
100
AcDb2dVertex
 10
7510025.04000026919
 20
5702010.87999968324
  0
VERTEX
  5
D8
100
AcDbEntity
  8
0
100
AcDbVertex
100
AcDb2dVertex
 10
7510003.07000026852
 20
5702057.43999968376
  0
VERTEX
  5
D9
100
AcDbEntity
  8
0
100
AcDbVertex
100
AcDb2dVertex
 10
7510006.50000026822
 20
5702058.1199996816
  0
SEQEND
  5
DA
100
AcDbEntity
  8
0
  0
POLYLINE
  5
DB
100
AcDbEntity
  8
0
  6
CONTINUOUS
370
18
100
AcDb2dPolyline
 66
1
 70
129
  0
VERTEX
  5
DC
100
AcDbEntity
  8
0
100
AcDbVertex
100
AcDb2dVertex
 10
7510564.98719927296
 20
5702297.21494068578
  0
VERTEX
  5
DD
100
AcDbEntity
  8
0
100
AcDbVertex
100
AcDb2dVertex
 10
7510553.10888227262
 20
5702290.64832368307
  0
VERTEX
  5
DE
100
AcDbEntity
  8
0
100
AcDbVertex
100
AcDb2dVertex
 10
7510529.0505912723
 20
5702277.32963468134
  0
VERTEX
  5
DF
100
AcDbEntity
  8
0
100
AcDbVertex
100
AcDb2dVertex
 10
7510525.53061527293
 20
5702275.43917968497
  0
VERTEX
  5
E0
100
AcDbEntity
  8
0
100
AcDbVertex
100
AcDb2dVertex
 10
7510494.56919027213
 20
5702257.25190268457
  0
VERTEX
  5
E1
100
AcDbEntity
  8
0
100
AcDbVertex
100
AcDb2dVertex
 10
7510476.71811027266
 20
5702247.19797168113
  0
VERTEX
  5
E2
100
AcDbEntity
  8
0
100
AcDbVertex
100
AcDb2dVertex
 10
7510458.8872952722
 20
5702237.15540268272
  0
VERTEX
  5
E3
100
AcDbEntity
  8
0
100
AcDbVertex
100
AcDb2dVertex
 10
7510442.20681627188
 20
5702227.76424168516
  0
VERTEX
  5
E4
100
AcDbEntity
  8
0
100
AcDbVertex
100
AcDb2dVertex
 10
7510424.83656627126
 20
5702217.9841626836
  0
VERTEX
  5
E5
100
AcDbEntity
  8
0
100
AcDbVertex
100
AcDb2dVertex
 10
7510372.27685427107
 20
5702189.46004068386
  0
VERTEX
  5
E6
100
AcDbEntity
  8
0
100
AcDbVertex
100
AcDb2dVertex
 10
7510344.93741227128
 20
5702174.19702668209
  0
VERTEX
  5
E7
100
AcDbEntity
  8
0
100
AcDbVertex
100
AcDb2dVertex
 10
7510316.69846627023
 20
5702156.60614268202
  0
VERTEX
  5
E8
100
AcDbEntity
  8
0
100
AcDbVertex
100
AcDb2dVertex
 10
7510294.92990227137
 20
5702144.60010268353
  0
VERTEX
  5
E9
100
AcDbEntity
  8
0
100
AcDbVertex
100
AcDb2dVertex
 10
7510289.50031927135
 20
5702141.60026968457
  0
VERTEX
  5
EA
100
AcDbEntity
  8
0
100
AcDbVertex
100
AcDb2dVertex
 10
7510263.52228427026
 20
5702126.80716468208
  0
VERTEX
  5
EB
100
AcDbEntity
  8
0
100
AcDbVertex
100
AcDb2dVertex
 10
7510236.39389427006
 20
5702111.71229168121
  0
VERTEX
  5
EC
100
AcDbEntity
  8
0
100
AcDbVertex
100
AcDb2dVertex
 10
7510207.9651222704
 20
5702095.62008968275
  0
VERTEX
  5
ED
100
AcDbEntity
  8
0
100
AcDbVertex
100
AcDb2dVertex
 10
7510182.44602726959
 20
5702081.33113268204
  0
VERTEX
  5
EE
100
AcDbEntity
  8
0
100
AcDbVertex
100
AcDb2dVertex
 10
7510175.10627026949
 20
5702077.27193668019
  0
VERTEX
  5
EF
100
AcDbEntity
  8
0
100
AcDbVertex
100
AcDb2dVertex
 10
7510153.87694726978
 20
5702065.24557868298
  0
VERTEX
  5
F0
100
AcDbEntity
  8
0
100
AcDbVertex
100
AcDb2dVertex
 10
7510132.82768626884
 20
5702053.51089768205
  0
VERTEX
  5
F1
100
AcDbEntity
  8
0
100
AcDbVertex
100
AcDb2dVertex
 10
7510112.75861127023
 20
5702041.99654368032
  0
VERTEX
  5
F2
100
AcDbEntity
  8
0
100
AcDbVertex
100
AcDb2dVertex
 10
7510092.68992826901
 20
5702030.48000568245
  0
VERTEX
  5
F3
100
AcDbEntity
  8
0
100
AcDbVertex
100
AcDb2dVertex
 10
7510085.09051426873
 20
5702026.20021768287
  0
VERTEX
  5
F4
100
AcDbEntity
  8
0
100
AcDbVertex
100
AcDb2dVertex
 10
7510052.72294626944
 20
5702007.80629068613
  0
VERTEX
  5
F5
100
AcDbEntity
  8
0
100
AcDbVertex
100
AcDb2dVertex
 10
7510036.8938992694
 20
5701998.82404768374
  0
VERTEX
  5
F6
100
AcDbEntity
  8
0
100
AcDbVertex
100
AcDb2dVertex
 10
7510024.59453126788
 20
5701992.00292968377
  0
VERTEX
  5
F7
100
AcDbEntity
  8
0
100
AcDbVertex
100
AcDb2dVertex
 10
7510009.79518926796
 20
5701983.79244168196
  0
VERTEX
  5
F8
100
AcDbEntity
  8
0
100
AcDbVertex
100
AcDb2dVertex
 10
7509989.71000026818
 20
5701972.51999968197
  0
VERTEX
  5
F9
100
AcDbEntity
  8
0
100
AcDbVertex
100
AcDb2dVertex
 10
7509980.09625526797
 20
5701967.1243326813
  0
VERTEX
  5
FA
100
AcDbEntity
  8
0
100
AcDbVertex
100
AcDb2dVertex
 10
7509952.36702226847
 20
5701951.72972768359
  0
VERTEX
  5
FB
100
AcDbEntity
  8
0
100
AcDbVertex
100
AcDb2dVertex
 10
7509928.69760826789
 20
5701939.12728368212
  0
VERTEX
  5
FC
100
AcDbEntity
  8
0
100
AcDbVertex
100
AcDb2dVertex
 10
7509920.95772526693
 20
5701931.69072068203
  0
VERTEX
  5
FD
100
AcDbEntity
  8
0
100
AcDbVertex
100
AcDb2dVertex
 10
7509917.50857526716
 20
5701950.62780268583
  0
VERTEX
  5
FE
100
AcDbEntity
  8
0
100
AcDbVertex
100
AcDb2dVertex
 10
7510020.6799999997
 20
5702008.4299999997
  0
VERTEX
  5
FF
100
AcDbEntity
  8
0
100
AcDbVertex
100
AcDb2dVertex
 10
7510025.04000026919
 20
5702010.87999968324
  0
VERTEX
  5
100
100
AcDbEntity
  8
0
100
AcDbVertex
100
AcDb2dVertex
 10
7510028.010000268
 20
5702012.53999968152
  0
VERTEX
  5
101
100
AcDbEntity
  8
0
100
AcDbVertex
100
AcDb2dVertex
 10
7510038.04429826792
 20
5702018.16390368436
  0
VERTEX
  5
102
100
AcDbEntity
  8
0
100
AcDbVertex
100
AcDb2dVertex
 10
7510039.06418526825
 20
5702016.59411668312
  0
VERTEX
  5
103
100
AcDbEntity
  8
0
100
AcDbVertex
100
AcDb2dVertex
 10
7510052.46329426952
 20
5702023.59608068224
  0
VERTEX
  5
104
100
AcDbEntity
  8
0
100
AcDbVertex
100
AcDb2dVertex
 10
7510061.65261626802
 20
5702028.4173996821
  0
VERTEX
  5
105
100
AcDbEntity
  8
0
100
AcDbVertex
100
AcDb2dVertex
 10
7510067.74214526825
 20
5702031.60811568331
  0
VERTEX
  5
106
100
AcDbEntity
  8
0
100
AcDbVertex
100
AcDb2dVertex
 10
7510089.00050726906
 20
5702043.38829468284
  0
VERTEX
  5
107
100
AcDbEntity
  8
0
100
AcDbVertex
100
AcDb2dVertex
 10
7510111.57912026904
 20
5702056.21389468107
  0
VERTEX
  5
108
100
AcDbEntity
  8
0
100
AcDbVertex
100
AcDb2dVertex
 10
7510115.50892927032
 20
5702058.45283968374
  0
VERTEX
  5
109
100
AcDbEntity
  8
0
100
AcDbVertex
100
AcDb2dVertex
 10
7510137.10805926938
 20
5702070.44709468447
  0
VERTEX
  5
10A
100
AcDbEntity
  8
0
100
AcDbVertex
100
AcDb2dVertex
 10
7510159.36731927004
 20
5702082.82252668031
  0
VERTEX
  5
10B
100
AcDbEntity
  8
0
100
AcDbVertex
100
AcDb2dVertex
 10
7510180.54660927039
 20
5702094.34003568068
  0
VERTEX
  5
10C
100
AcDbEntity
  8
0
100
AcDbVertex
100
AcDb2dVertex
 10
7510201.31585127022
 20
5702105.62934968062
  0
VERTEX
  5
10D
100
AcDbEntity
  8
0
100
AcDbVertex
100
AcDb2dVertex
 10
7510204.51573027018
 20
5702107.48939668108
  0
VERTEX
  5
10E
100
AcDbEntity
  8
0
100
AcDbVertex
100
AcDb2dVertex
 10
7510214.28533926979
 20
5702113.17981768213
  0
VERTEX
  5
10F
100
AcDbEntity
  8
0
100
AcDbVertex
100
AcDb2dVertex
 10
7510228.03472227138
 20
5702121.19112568256
  0
VERTEX
  5
110
100
AcDbEntity
  8
0
100
AcDbVertex
100
AcDb2dVertex
 10
7510227.92474627029
 20
5702121.76109868381
  0
VERTEX
  5
111
100
AcDbEntity
  8
0
100
AcDbVertex
100
AcDb2dVertex
 10
7510252.04337527044
 20
5702135.305053683
  0
VERTEX
  5
112
100
AcDbEntity
  8
0
100
AcDbVertex
100
AcDb2dVertex
 10
7510272.83187427092
 20
5702146.98834868334
  0
VERTEX
  5
113
100
AcDbEntity
  8
0
100
AcDbVertex
100
AcDb2dVertex
 10
7510281.00124227069
 20
5702151.68885568157
  0
VERTEX
  5
114
100
AcDbEntity
  8
0
100
AcDbVertex
100
AcDb2dVertex
 10
7510289.24061727058
 20
5702156.42863368243
  0
VERTEX
  5
115
100
AcDbEntity
  8
0
100
AcDbVertex
100
AcDb2dVertex
 10
7510306.9394372711
 20
5702166.26570568327
  0
VERTEX
  5
116
100
AcDbEntity
  8
0
100
AcDbVertex
100
AcDb2dVertex
 10
7510307.29939627089
 20
5702165.79577368218
  0
VERTEX
  5
117
100
AcDbEntity
  8
0
100
AcDbVertex
100
AcDb2dVertex
 10
7510323.20862927102
 20
5702174.86115568317
  0
VERTEX
  5
118
100
AcDbEntity
  8
0
100
AcDbVertex
100
AcDb2dVertex
 10
7510322.91866527125
 20
5702175.32109668199
  0
VERTEX
  5
119
100
AcDbEntity
  8
0
100
AcDbVertex
100
AcDb2dVertex
 10
7510326.36853327136
 20
5702177.29001268372
  0
VERTEX
  5
11A
100
AcDbEntity
  8
0
100
AcDbVertex
100
AcDb2dVertex
 10
7510345.29798227083
 20
5702188.12430368271
  0
VERTEX
  5
11B
100
AcDbEntity
  8
0
100
AcDbVertex
100
AcDb2dVertex
 10
7510368.3975722706
 20
5702201.40880568419
  0
VERTEX
  5
11C
100
AcDbEntity
  8
0
100
AcDbVertex
100
AcDb2dVertex
 10
7510390.30736027192
 20
5702213.88538668491
  0
VERTEX
  5
11D
100
AcDbEntity
  8
0
100
AcDbVertex
100
AcDb2dVertex
 10
7510408.90736027155
 20
5702225.09369568154
  0
VERTEX
  5
11E
100
AcDbEntity
  8
0
100
AcDbVertex
100
AcDb2dVertex
 10
7510412.33737827092
 20
5702227.15351068322
  0
VERTEX
  5
11F
100
AcDbEntity
  8
0
100
AcDbVertex
100
AcDb2dVertex
 10
7510437.45769327227
 20
5702241.38342768326
  0
VERTEX
  5
120
100
AcDbEntity
  8
0
100
AcDbVertex
100
AcDb2dVertex
 10
7510468.28872927185
 20
5702257.90661968198
  0
VERTEX
  5
121
100
AcDbEntity
  8
0
100
AcDbVertex
100
AcDb2dVertex
 10
7510474.50000027195
 20
5702261.39999968372
  0
VERTEX
  5
122
100
AcDbEntity
  8
0
100
AcDbVertex
100
AcDb2dVertex
 10
7510486.21000027191
 20
5702267.98999968357
  0
VERTEX
  5
123
100
AcDbEntity
  8
0
100
AcDbVertex
100
AcDb2dVertex
 10
7510507.17000027187
 20
5702279.7699996829
  0
VERTEX
  5
124
100
AcDbEntity
  8
0
100
AcDbVertex
100
AcDb2dVertex
 10
7510513.2309832722
 20
5702283.17649868038
  0
VERTEX
  5
125
100
AcDbEntity
  8
0
100
AcDbVertex
100
AcDb2dVertex
 10
7510525.35095027275
 20
5702290.53802768327
  0
VERTEX
  5
126
100
AcDbEntity
  8
0
100
AcDbVertex
100
AcDb2dVertex
 10
7510527.41000027303
 20
5702291.78999968246
  0
VERTEX
  5
127
100
AcDbEntity
  8
0
100
AcDbVertex
100
AcDb2dVertex
 10
7510530.97000027169
 20
5702293.94999968354
  0
VERTEX
  5
128
100
AcDbEntity
  8
0
100
AcDbVertex
100
AcDb2dVertex
 10
7510583.73378127255
 20
5702325.99317568261
  0
VERTEX
  5
129
100
AcDbEntity
  8
0
100
AcDbVertex
100
AcDb2dVertex
 10
7510604.38115127292
 20
5702336.25648468453
  0
VERTEX
  5
12A
100
AcDbEntity
  8
0
100
AcDbVertex
100
AcDb2dVertex
 10
7510643.15786327422
 20
5702360.01692868397
  0
VERTEX
  5
12B
100
AcDbEntity
  8
0
100
AcDbVertex
100
AcDb2dVertex
 10
7510658.48709827382
 20
5702370.3643516833
  0
VERTEX
  5
12C
100
AcDbEntity
  8
0
100
AcDbVertex
100
AcDb2dVertex
 10
7510661.54000027291
 20
5702372.41999968421
  0
VERTEX
  5
12D
100
AcDbEntity
  8
0
100
AcDbVertex
100
AcDb2dVertex
 10
7510663.60689727403
 20
5702373.82363168336
  0
VERTEX
  5
12E
100
AcDbEntity
  8
0
100
AcDbVertex
100
AcDb2dVertex
 10
7510666.24679827411
 20
5702375.47330068424
  0
VERTEX
  5
12F
100
AcDbEntity
  8
0
100
AcDbVertex
100
AcDb2dVertex
 10
7510707.80617827363
 20
5702403.22004068363
  0
VERTEX
  5
130
100
AcDbEntity
  8
0
100
AcDbVertex
100
AcDb2dVertex
 10
7510730.40664827358
 20
5702419.0900136847
  0
VERTEX
  5
131
100
AcDbEntity
  8
0
100
AcDbVertex
100
AcDb2dVertex
 10
7510743.91725427378
 20
5702428.79072868358
  0
VERTEX
  5
132
100
AcDbEntity
  8
0
100
AcDbVertex
100
AcDb2dVertex
 10
7510762.30000027362
 20
5702439.79999968316
  0
VERTEX
  5
133
100
AcDbEntity
  8
0
100
AcDbVertex
100
AcDb2dVertex
 10
7510766.13854827452
 20
5702442.10324068367
  0
VERTEX
  5
134
100
AcDbEntity
  8
0
100
AcDbVertex
100
AcDb2dVertex
 10
7510781.15967527498
 20
5702451.78568068426
  0
VERTEX
  5
135
100
AcDbEntity
  8
0
100
AcDbVertex
100
AcDb2dVertex
 10
7510788.73033427447
 20
5702458.9469366828
  0
VERTEX
  5
136
100
AcDbEntity
  8
0
100
AcDbVertex
100
AcDb2dVertex
 10
7510809.07076227479
 20
5702483.57757468149
  0
VERTEX
  5
137
100
AcDbEntity
  8
0
100
AcDbVertex
100
AcDb2dVertex
 10
7510821.82935427502
 20
5702498.94464968517
  0
VERTEX
  5
138
100
AcDbEntity
  8
0
100
AcDbVertex
100
AcDb2dVertex
 10
7510835.53711527493
 20
5702515.25953768659
  0
VERTEX
  5
139
100
AcDbEntity
  8
0
100
AcDbVertex
100
AcDb2dVertex
 10
7510837.80673927534
 20
5702517.97861168347
  0
VERTEX
  5
13A
100
AcDbEntity
  8
0
100
AcDbVertex
100
AcDb2dVertex
 10
7510850.67484727595
 20
5702533.13357468601
  0
VERTEX
  5
13B
100
AcDbEntity
  8
0
100
AcDbVertex
100
AcDb2dVertex
 10
7510853.28452627454
 20
5702536.23261968512
  0
VERTEX
  5
13C
100
AcDbEntity
  8
0
100
AcDbVertex
100
AcDb2dVertex
 10
7510864.01347327605
 20
5702548.97906968463
  0
VERTEX
  5
13D
100
AcDbEntity
  8
0
100
AcDbVertex
100
AcDb2dVertex
 10
7510874.84303127509
 20
5702567.78529768437
  0
VERTEX
  5
13E
100
AcDbEntity
  8
0
100
AcDbVertex
100
AcDb2dVertex
 10
7510884.5831662761
 20
5702584.15289868414
  0
VERTEX
  5
13F
100
AcDbEntity
  8
0
100
AcDbVertex
100
AcDb2dVertex
 10
7510884.36318827514
 20
5702584.30289168656
  0
VERTEX
  5
140
100
AcDbEntity
  8
0
100
AcDbVertex
100
AcDb2dVertex
 10
7510896.02416327596
 20
5702606.34087768476
  0
VERTEX
  5
141
100
AcDbEntity
  8
0
100
AcDbVertex
100
AcDb2dVertex
 10
7510902.03501527477
 20
5702618.14031468425
  0
VERTEX
  5
142
100
AcDbEntity
  8
0
100
AcDbVertex
100
AcDb2dVertex
 10
7510902.38507127576
 20
5702618.82029368356
  0
VERTEX
  5
143
100
AcDbEntity
  8
0
100
AcDbVertex
100
AcDb2dVertex
 10
7510908.55620427523
 20
5702630.9401186835
  0
VERTEX
  5
144
100
AcDbEntity
  8
0
100
AcDbVertex
100
AcDb2dVertex
 10
7510909.64643027447
 20
5702633.07013068628
  0
VERTEX
  5
145
100
AcDbEntity
  8
0
100
AcDbVertex
100
AcDb2dVertex
 10
7510915.65783527587
 20
5702644.87043268513
  0
VERTEX
  5
146
100
AcDbEntity
  8
0
100
AcDbVertex
100
AcDb2dVertex
 10
7510928.36000027601
 20
5702637.44999968354
  0
VERTEX
  5
147
100
AcDbEntity
  8
0
100
AcDbVertex
100
AcDb2dVertex
 10
7510899.45201727562
 20
5702580.29265568312
  0
VERTEX
  5
148
100
AcDbEntity
  8
0
100
AcDbVertex
100
AcDb2dVertex
 10
7510888.66165727563
 20
5702558.96558968443
  0
VERTEX
  5
149
100
AcDbEntity
  8
0
100
AcDbVertex
100
AcDb2dVertex
 10
7510877.47218327597
 20
5702542.94894768205
  0
VERTEX
  5
14A
100
AcDbEntity
  8
0
100
AcDbVertex
100
AcDb2dVertex
 10
7510800.35987027455
 20
5702450.61865368206
  0
VERTEX
  5
14B
100
AcDbEntity
  8
0
100
AcDbVertex
100
AcDb2dVertex
 10
7510779.20790927392
 20
5702432.51482068188
  0
VERTEX
  5
14C
100
AcDbEntity
  8
0
100
AcDbVertex
100
AcDb2dVertex
 10
7510709.53510927409
 20
5702386.31101468485
  0
VERTEX
  5
14D
100
AcDbEntity
  8
0
100
AcDbVertex
100
AcDb2dVertex
 10
7510631.56826827396
 20
5702334.62203968223
  0
SEQEND
  5
14E
100
AcDbEntity
  8
0
  0
POLYLINE
  5
14F
100
AcDbEntity
  8
0
  6
CONTINUOUS
370
18
100
AcDb2dPolyline
 66
1
 70
129
  0
VERTEX
  5
150
100
AcDbEntity
  8
0
100
AcDbVertex
100
AcDb2dVertex
 10
7509856.97057926748
 20
5702260.607606682
  0
VERTEX
  5
151
100
AcDbEntity
  8
0
100
AcDbVertex
100
AcDb2dVertex
 10
7509862.56000026688
 20
5702231.73999968264
  0
VERTEX
  5
152
100
AcDbEntity
  8
0
100
AcDbVertex
100
AcDb2dVertex
 10
7509870.93000026699
 20
5702188.53999968339
  0
VERTEX
  5
153
100
AcDbEntity
  8
0
100
AcDbVertex
100
AcDb2dVertex
 10
7509886.06000026688
 20
5702110.40999968257
  0
VERTEX
  5
154
100
AcDbEntity
  8
0
100
AcDbVertex
100
AcDb2dVertex
 10
7509886.41692726687
 20
5702108.53988568205
  0
VERTEX
  5
155
100
AcDbEntity
  8
0
100
AcDbVertex
100
AcDb2dVertex
 10
7509900.45999999996
 20
5702037.24000000022
  0
VERTEX
  5
156
100
AcDbEntity
  8
0
100
AcDbVertex
100
AcDb2dVertex
 10
7509917.38860726822
 20
5701951.2176816836
  0
VERTEX
  5
157
100
AcDbEntity
  8
0
100
AcDbVertex
100
AcDb2dVertex
 10
7509917.50857526716
 20
5701950.62780268583
  0
VERTEX
  5
158
100
AcDbEntity
  8
0
100
AcDbVertex
100
AcDb2dVertex
 10
7509920.95772526693
 20
5701931.69072068203
  0
VERTEX
  5
159
100
AcDbEntity
  8
0
100
AcDbVertex
100
AcDb2dVertex
 10
7509895.31897326838
 20
5701923.53851768281
  0
VERTEX
  5
15A
100
AcDbEntity
  8
0
100
AcDbVertex
100
AcDb2dVertex
 10
7509894.21921026707
 20
5701930.54773368034
  0
VERTEX
  5
15B
100
AcDbEntity
  8
0
100
AcDbVertex
100
AcDb2dVertex
 10
7509866.37722626701
 20
5702072.90374568198
  0
VERTEX
  5
15C
100
AcDbEntity
  8
0
100
AcDbVertex
100
AcDb2dVertex
 10
7509852.75001226738
 20
5702143.42777968291
  0
VERTEX
  5
15D
100
AcDbEntity
  8
0
100
AcDbVertex
100
AcDb2dVertex
 10
7509839.35182626732
 20
5702211.7565836804
  0
VERTEX
  5
15E
100
AcDbEntity
  8
0
100
AcDbVertex
100
AcDb2dVertex
 10
7509829.27192726731
 20
5702263.13089968264
  0
VERTEX
  5
15F
100
AcDbEntity
  8
0
100
AcDbVertex
100
AcDb2dVertex
 10
7509808.11007426679
 20
5702372.04540868476
  0
VERTEX
  5
160
100
AcDbEntity
  8
0
100
AcDbVertex
100
AcDb2dVertex
 10
7509787.65055226628
 20
5702476.65304768551
  0
VERTEX
  5
161
100
AcDbEntity
  8
0
100
AcDbVertex
100
AcDb2dVertex
 10
7509761.5417312663
 20
5702610.13183268253
  0
VERTEX
  5
162
100
AcDbEntity
  8
0
100
AcDbVertex
100
AcDb2dVertex
 10
7509742.04160826653
 20
5702720.8241876848
  0
VERTEX
  5
163
100
AcDbEntity
  8
0
100
AcDbVertex
100
AcDb2dVertex
 10
7509765.25592626631
 20
5702721.32859368529
  0
VERTEX
  5
164
100
AcDbEntity
  8
0
100
AcDbVertex
100
AcDb2dVertex
 10
7509770.10000026599
 20
5702698.83999968506
  0
VERTEX
  5
165
100
AcDbEntity
  8
0
100
AcDbVertex
100
AcDb2dVertex
 10
7509770.32665926684
 20
5702697.77908768319
  0
VERTEX
  5
166
100
AcDbEntity
  8
0
100
AcDbVertex
100
AcDb2dVertex
 10
7509783.81046526693
 20
5702635.13890468422
  0
VERTEX
  5
167
100
AcDbEntity
  8
0
100
AcDbVertex
100
AcDb2dVertex
 10
7509802.07154426631
 20
5702541.8233576864
  0
VERTEX
  5
168
100
AcDbEntity
  8
0
100
AcDbVertex
100
AcDb2dVertex
 10
7509817.76761026774
 20
5702461.61488668248
  0
VERTEX
  5
169
100
AcDbEntity
  8
0
100
AcDbVertex
100
AcDb2dVertex
 10
7509818.9700002661
 20
5702455.46999968402
  0
VERTEX
  5
16A
100
AcDbEntity
  8
0
100
AcDbVertex
100
AcDb2dVertex
 10
7509821.55000026804
 20
5702442.21999968309
  0
VERTEX
  5
16B
100
AcDbEntity
  8
0
100
AcDbVertex
100
AcDb2dVertex
 10
7509824.71000026725
 20
5702426.01999968383
  0
SEQEND
  5
16C
100
AcDbEntity
  8
0
  0
POLYLINE
  5
16D
100
AcDbEntity
  8
0
  6
CONTINUOUS
370
18
100
AcDb2dPolyline
 66
1
 70
129
  0
VERTEX
  5
16E
100
AcDbEntity
  8
0
100
AcDbVertex
100
AcDb2dVertex
 10
7510016.15706926957
 20
5701743.23353468068
  0
VERTEX
  5
16F
100
AcDbEntity
  8
0
100
AcDbVertex
100
AcDb2dVertex
 10
7510018.3064612681
 20
5701729.68451568112
  0
VERTEX
  5
170
100
AcDbEntity
  8
0
100
AcDbVertex
100
AcDb2dVertex
 10
7509961.73908826802
 20
5701722.80508968048
  0
VERTEX
  5
171
100
AcDbEntity
  8
0
100
AcDbVertex
100
AcDb2dVertex
 10
7509921.88000026718
 20
5701926.96999968216
  0
VERTEX
  5
172
100
AcDbEntity
  8
0
100
AcDbVertex
100
AcDb2dVertex
 10
7509931.11000026856
 20
5701936.91999968141
  0
VERTEX
  5
173
100
AcDbEntity
  8
0
100
AcDbVertex
100
AcDb2dVertex
 10
7509980.5361352684
 20
5701964.39455268253
  0
SEQEND
  5
174
100
AcDbEntity
  8
0
  0
POLYLINE
  5
175
100
AcDbEntity
  8
0
  6
CONTINUOUS
370
18
100
AcDb2dPolyline
 66
1
 70
129
  0
VERTEX
  5
176
100
AcDbEntity
  8
0
100
AcDbVertex
100
AcDb2dVertex
 10
7509980.5361352684
 20
5701964.39455268253
  0
VERTEX
  5
177
100
AcDbEntity
  8
0
100
AcDbVertex
100
AcDb2dVertex
 10
7509931.11000026856
 20
5701936.91999968141
  0
VERTEX
  5
178
100
AcDbEntity
  8
0
100
AcDbVertex
100
AcDb2dVertex
 10
7509921.88000026718
 20
5701926.96999968216
  0
VERTEX
  5
179
100
AcDbEntity
  8
0
100
AcDbVertex
100
AcDb2dVertex
 10
7509921.45763126854
 20
5701929.14091468416
  0
VERTEX
  5
17A
100
AcDbEntity
  8
0
100
AcDbVertex
100
AcDb2dVertex
 10
7509920.95772526693
 20
5701931.69072068203
  0
VERTEX
  5
17B
100
AcDbEntity
  8
0
100
AcDbVertex
100
AcDb2dVertex
 10
7509928.69760826789
 20
5701939.12728368212
  0
VERTEX
  5
17C
100
AcDbEntity
  8
0
100
AcDbVertex
100
AcDb2dVertex
 10
7509952.36702226847
 20
5701951.72972768359
  0
VERTEX
  5
17D
100
AcDbEntity
  8
0
100
AcDbVertex
100
AcDb2dVertex
 10
7509980.09625526797
 20
5701967.1243326813
  0
SEQEND
  5
17E
100
AcDbEntity
  8
0
  0
POLYLINE
  5
17F
100
AcDbEntity
  8
0
  6
CONTINUOUS
370
18
100
AcDb2dPolyline
 66
1
 70
129
  0
VERTEX
  5
180
100
AcDbEntity
  8
0
100
AcDbVertex
100
AcDb2dVertex
 10
7510010.31503026932
 20
5701979.82262368314
  0
VERTEX
  5
181
100
AcDbEntity
  8
0
100
AcDbVertex
100
AcDb2dVertex
 10
7509980.5361352684
 20
5701964.39455268253
  0
VERTEX
  5
182
100
AcDbEntity
  8
0
100
AcDbVertex
100
AcDb2dVertex
 10
7509989.71000026818
 20
5701972.51999968197
  0
VERTEX
  5
183
100
AcDbEntity
  8
0
100
AcDbVertex
100
AcDb2dVertex
 10
7510009.79518926796
 20
5701983.79244168196
  0
VERTEX
  5
184
100
AcDbEntity
  8
0
100
AcDbVertex
100
AcDb2dVertex
 10
7510010.18507026881
 20
5701980.8225786835
  0
SEQEND
  5
185
100
AcDbEntity
  8
0
  0
POLYLINE
  5
186
100
AcDbEntity
  8
0
  6
CONTINUOUS
370
18
100
AcDb2dPolyline
 66
1
 70
129
  0
VERTEX
  5
187
100
AcDbEntity
  8
0
100
AcDbVertex
100
AcDb2dVertex
 10
7510042.985180269
 20
5701732.68156268075
  0
VERTEX
  5
188
100
AcDbEntity
  8
0
100
AcDbVertex
100
AcDb2dVertex
 10
7510018.3064612681
 20
5701729.68451568112
  0
VERTEX
  5
189
100
AcDbEntity
  8
0
100
AcDbVertex
100
AcDb2dVertex
 10
7510016.15706926957
 20
5701743.23353468068
  0
VERTEX
  5
18A
100
AcDbEntity
  8
0
100
AcDbVertex
100
AcDb2dVertex
 10
7509980.5361352684
 20
5701964.39455268253
  0
VERTEX
  5
18B
100
AcDbEntity
  8
0
100
AcDbVertex
100
AcDb2dVertex
 10
7510010.31503026932
 20
5701979.82262368314
  0
SEQEND
  5
18C
100
AcDbEntity
  8
0
  0
POLYLINE
  5
18D
100
AcDbEntity
  8
0
  6
CONTINUOUS
370
18
100
AcDb2dPolyline
 66
1
 70
129
  0
VERTEX
  5
18E
100
AcDbEntity
  8
0
100
AcDbVertex
100
AcDb2dVertex
 10
7510025.00441626925
 20
5701989.01300768461
  0
VERTEX
  5
18F
100
AcDbEntity
  8
0
100
AcDbVertex
100
AcDb2dVertex
 10
7510010.18507026881
 20
5701980.8225786835
  0
VERTEX
  5
190
100
AcDbEntity
  8
0
100
AcDbVertex
100
AcDb2dVertex
 10
7510009.79518926796
 20
5701983.79244168196
  0
VERTEX
  5
191
100
AcDbEntity
  8
0
100
AcDbVertex
100
AcDb2dVertex
 10
7510024.59453126788
 20
5701992.00292968377
  0
SEQEND
  5
192
100
AcDbEntity
  8
0
  0
POLYLINE
  5
193
100
AcDbEntity
  8
0
  6
CONTINUOUS
370
18
100
AcDb2dPolyline
 66
1
 70
129
  0
VERTEX
  5
194
100
AcDbEntity
  8
0
100
AcDbVertex
100
AcDb2dVertex
 10
7510037.93065226916
 20
5701893.70416068379
  0
VERTEX
  5
195
100
AcDbEntity
  8
0
100
AcDbVertex
100
AcDb2dVertex
 10
7510059.51427026931
 20
5701734.690000684
  0
VERTEX
  5
196
100
AcDbEntity
  8
0
100
AcDbVertex
100
AcDb2dVertex
 10
7510042.985180269
 20
5701732.68156268075
  0
VERTEX
  5
197
100
AcDbEntity
  8
0
100
AcDbVertex
100
AcDb2dVertex
 10
7510010.31503026932
 20
5701979.82262368314
  0
VERTEX
  5
198
100
AcDbEntity
  8
0
100
AcDbVertex
100
AcDb2dVertex
 10
7510010.18507026881
 20
5701980.8225786835
  0
VERTEX
  5
199
100
AcDbEntity
  8
0
100
AcDbVertex
100
AcDb2dVertex
 10
7510025.00441626925
 20
5701989.01300768461
  0
SEQEND
  5
19A
100
AcDbEntity
  8
0
  0
POLYLINE
  5
19B
100
AcDbEntity
  8
0
  6
CONTINUOUS
370
18
100
AcDb2dPolyline
 66
1
 70
129
  0
VERTEX
  5
19C
100
AcDbEntity
  8
0
100
AcDbVertex
100
AcDb2dVertex
 10
7510051.28986626957
 20
5701895.56349768117
  0
VERTEX
  5
19D
100
AcDbEntity
  8
0
100
AcDbVertex
100
AcDb2dVertex
 10
7510037.93065226916
 20
5701893.70416068379
  0
VERTEX
  5
19E
100
AcDbEntity
  8
0
100
AcDbVertex
100
AcDb2dVertex
 10
7510025.00441626925
 20
5701989.01300768461
  0
VERTEX
  5
19F
100
AcDbEntity
  8
0
100
AcDbVertex
100
AcDb2dVertex
 10
7510024.59453126788
 20
5701992.00292968377
  0
VERTEX
  5
1A0
100
AcDbEntity
  8
0
100
AcDbVertex
100
AcDb2dVertex
 10
7510036.8938992694
 20
5701998.82404768374
  0
VERTEX
  5
1A1
100
AcDbEntity
  8
0
100
AcDbVertex
100
AcDb2dVertex
 10
7510037.31379026826
 20
5701995.82407868281
  0
SEQEND
  5
1A2
100
AcDbEntity
  8
0
  0
POLYLINE
  5
1A3
100
AcDbEntity
  8
0
  6
CONTINUOUS
370
18
100
AcDb2dPolyline
 66
1
 70
129
  0
VERTEX
  5
1A4
100
AcDbEntity
  8
0
100
AcDbVertex
100
AcDb2dVertex
 10
7510068.47885026876
 20
5701898.82276968099
  0
VERTEX
  5
1A5
100
AcDbEntity
  8
0
100
AcDbVertex
100
AcDb2dVertex
 10
7510051.28986626957
 20
5701895.56349768117
  0
VERTEX
  5
1A6
100
AcDbEntity
  8
0
100
AcDbVertex
100
AcDb2dVertex
 10
7510037.31379026826
 20
5701995.82407868281
  0
VERTEX
  5
1A7
100
AcDbEntity
  8
0
100
AcDbVertex
100
AcDb2dVertex
 10
7510053.1828412693
 20
5702004.60627568234
  0
VERTEX
  5
1A8
100
AcDbEntity
  8
0
100
AcDbVertex
100
AcDb2dVertex
 10
7510059.86119026784
 20
5701958.45409868378
  0
SEQEND
  5
1A9
100
AcDbEntity
  8
0
  0
POLYLINE
  5
1AA
100
AcDbEntity
  8
0
  6
CONTINUOUS
370
18
100
AcDb2dPolyline
 66
1
 70
129
  0
VERTEX
  5
1AB
100
AcDbEntity
  8
0
100
AcDbVertex
100
AcDb2dVertex
 10
7510053.1828412693
 20
5702004.60627568234
  0
VERTEX
  5
1AC
100
AcDbEntity
  8
0
100
AcDbVertex
100
AcDb2dVertex
 10
7510037.31379026826
 20
5701995.82407868281
  0
VERTEX
  5
1AD
100
AcDbEntity
  8
0
100
AcDbVertex
100
AcDb2dVertex
 10
7510036.8938992694
 20
5701998.82404768374
  0
VERTEX
  5
1AE
100
AcDbEntity
  8
0
100
AcDbVertex
100
AcDb2dVertex
 10
7510052.72294626944
 20
5702007.80629068613
  0
SEQEND
  5
1AF
100
AcDbEntity
  8
0
  0
POLYLINE
  5
1B0
100
AcDbEntity
  8
0
  6
CONTINUOUS
370
18
100
AcDb2dPolyline
 66
1
 70
129
  0
VERTEX
  5
1B1
100
AcDbEntity
  8
0
100
AcDbVertex
100
AcDb2dVertex
 10
7509961.73908826802
 20
5701722.80508968048
  0
VERTEX
  5
1B2
100
AcDbEntity
  8
0
100
AcDbVertex
100
AcDb2dVertex
 10
7509982.12000026926
 20
5701619.36999968253
  0
VERTEX
  5
1B3
100
AcDbEntity
  8
0
100
AcDbVertex
100
AcDb2dVertex
 10
7509995.53140826803
 20
5701551.28640368022
  0
VERTEX
  5
1B4
100
AcDbEntity
  8
0
100
AcDbVertex
100
AcDb2dVertex
 10
7509995.87122226879
 20
5701549.31589767989
  0
VERTEX
  5
1B5
100
AcDbEntity
  8
0
100
AcDbVertex
100
AcDb2dVertex
 10
7509997.60022026952
 20
5701539.46320768259
  0
VERTEX
  5
1B6
100
AcDbEntity
  8
0
100
AcDbVertex
100
AcDb2dVertex
 10
7510002.39679626841
 20
5701511.96421767864
  0
VERTEX
  5
1B7
100
AcDbEntity
  8
0
100
AcDbVertex
100
AcDb2dVertex
 10
7510011.04075426795
 20
5701460.57114668097
  0
VERTEX
  5
1B8
100
AcDbEntity
  8
0
100
AcDbVertex
100
AcDb2dVertex
 10
7510013.600601268
 20
5701450.28273167834
  0
VERTEX
  5
1B9
100
AcDbEntity
  8
0
100
AcDbVertex
100
AcDb2dVertex
 10
7510014.74068326782
 20
5701445.7239656793
  0
VERTEX
  5
1BA
100
AcDbEntity
  8
0
100
AcDbVertex
100
AcDb2dVertex
 10
7509988.61953826901
 20
5701444.33277467918
  0
VERTEX
  5
1BB
100
AcDbEntity
  8
0
100
AcDbVertex
100
AcDb2dVertex
 10
7509978.30460826866
 20
5701490.71183468029
  0
VERTEX
  5
1BC
100
AcDbEntity
  8
0
100
AcDbVertex
100
AcDb2dVertex
 10
7509973.19944526814
 20
5701518.22553267889
  0
VERTEX
  5
1BD
100
AcDbEntity
  8
0
100
AcDbVertex
100
AcDb2dVertex
 10
7509959.44643526804
 20
5701590.96775367949
  0
VERTEX
  5
1BE
100
AcDbEntity
  8
0
100
AcDbVertex
100
AcDb2dVertex
 10
7509942.56866826769
 20
5701683.20766268205
  0
VERTEX
  5
1BF
100
AcDbEntity
  8
0
100
AcDbVertex
100
AcDb2dVertex
 10
7509940.88898526784
 20
5701692.31685868092
  0
VERTEX
  5
1C0
100
AcDbEntity
  8
0
100
AcDbVertex
100
AcDb2dVertex
 10
7509919.03562326729
 20
5701803.36474268045
  0
VERTEX
  5
1C1
100
AcDbEntity
  8
0
100
AcDbVertex
100
AcDb2dVertex
 10
7509895.31897326838
 20
5701923.53851768281
  0
VERTEX
  5
1C2
100
AcDbEntity
  8
0
100
AcDbVertex
100
AcDb2dVertex
 10
7509920.95772526693
 20
5701931.69072068203
  0
VERTEX
  5
1C3
100
AcDbEntity
  8
0
100
AcDbVertex
100
AcDb2dVertex
 10
7509921.45763126854
 20
5701929.14091468416
  0
VERTEX
  5
1C4
100
AcDbEntity
  8
0
100
AcDbVertex
100
AcDb2dVertex
 10
7509921.88000026718
 20
5701926.96999968216
  0
SEQEND
  5
1C5
100
AcDbEntity
  8
0
  0
POLYLINE
  5
1C6
100
AcDbEntity
  8
0
  6
CONTINUOUS
370
18
100
AcDb2dPolyline
 66
1
 70
129
  0
VERTEX
  5
1C7
100
AcDbEntity
  8
0
100
AcDbVertex
100
AcDb2dVertex
 10
7510050.78350226954
 20
5702027.03559868131
  0
VERTEX
  5
1C8
100
AcDbEntity
  8
0
100
AcDbVertex
100
AcDb2dVertex
 10
7510037.35438126884
 20
5702019.5337406816
  0
VERTEX
  5
1C9
100
AcDbEntity
  8
0
100
AcDbVertex
100
AcDb2dVertex
 10
7510017.43681426905
 20
5702059.28726168349
  0
VERTEX
  5
1CA
100
AcDbEntity
  8
0
100
AcDbVertex
100
AcDb2dVertex
 10
7510017.08000026923
 20
5702060.19999968447
  0
VERTEX
  5
1CB
100
AcDbEntity
  8
0
100
AcDbVertex
100
AcDb2dVertex
 10
7510004.15865326859
 20
5702092.67195668351
  0
VERTEX
  5
1CC
100
AcDbEntity
  8
0
100
AcDbVertex
100
AcDb2dVertex
 10
7510015.92797826789
 20
5702098.3716866821
  0
SEQEND
  5
1CD
100
AcDbEntity
  8
0
  0
POLYLINE
  5
1CE
100
AcDbEntity
  8
0
  6
CONTINUOUS
370
18
100
AcDb2dPolyline
 66
1
 70
129
  0
VERTEX
  5
1CF
100
AcDbEntity
  8
0
100
AcDbVertex
100
AcDb2dVertex
 10
7509946.3000002671
 20
5702221.25999968406
  0
VERTEX
  5
1D0
100
AcDbEntity
  8
0
100
AcDbVertex
100
AcDb2dVertex
 10
7509978.09000026807
 20
5702233.7999996813
  0
VERTEX
  5
1D1
100
AcDbEntity
  8
0
100
AcDbVertex
100
AcDb2dVertex
 10
7510034.38691626862
 20
5702108.0610036822
  0
VERTEX
  5
1D2
100
AcDbEntity
  8
0
100
AcDbVertex
100
AcDb2dVertex
 10
7510027.0373412678
 20
5702104.20131068304
  0
VERTEX
  5
1D3
100
AcDbEntity
  8
0
100
AcDbVertex
100
AcDb2dVertex
 10
7510015.92797826789
 20
5702098.3716866821
  0
VERTEX
  5
1D4
100
AcDbEntity
  8
0
100
AcDbVertex
100
AcDb2dVertex
 10
7510004.15865326859
 20
5702092.67195668351
  0
VERTEX
  5
1D5
100
AcDbEntity
  8
0
100
AcDbVertex
100
AcDb2dVertex
 10
7509986.56000026781
 20
5702131.78999968059
  0
SEQEND
  5
1D6
100
AcDbEntity
  8
0
  0
POLYLINE
  5
1D7
100
AcDbEntity
  8
0
  6
CONTINUOUS
370
18
100
AcDb2dPolyline
 66
1
 70
129
  0
VERTEX
  5
1D8
100
AcDbEntity
  8
0
100
AcDbVertex
100
AcDb2dVertex
 10
7510089.00050726906
 20
5702043.38829468284
  0
VERTEX
  5
1D9
100
AcDbEntity
  8
0
100
AcDbVertex
100
AcDb2dVertex
 10
7510067.74214526825
 20
5702031.60811568331
  0
VERTEX
  5
1DA
100
AcDbEntity
  8
0
100
AcDbVertex
100
AcDb2dVertex
 10
7510066.02237326931
 20
5702035.55745668244
  0
VERTEX
  5
1DB
100
AcDbEntity
  8
0
100
AcDbVertex
100
AcDb2dVertex
 10
7510034.38691626862
 20
5702108.0610036822
  0
VERTEX
  5
1DC
100
AcDbEntity
  8
0
100
AcDbVertex
100
AcDb2dVertex
 10
7510055.40566026792
 20
5702117.57005668059
  0
VERTEX
  5
1DD
100
AcDbEntity
  8
0
100
AcDbVertex
100
AcDb2dVertex
 10
7510068.04374126904
 20
5702089.65614268277
  0
VERTEX
  5
1DE
100
AcDbEntity
  8
0
100
AcDbVertex
100
AcDb2dVertex
 10
7510076.31243326888
 20
5702071.39110368118
  0
VERTEX
  5
1DF
100
AcDbEntity
  8
0
100
AcDbVertex
100
AcDb2dVertex
 10
7510087.19076326862
 20
5702047.38748768344
  0
SEQEND
  5
1E0
100
AcDbEntity
  8
0
  0
POLYLINE
  5
1E1
100
AcDbEntity
  8
0
  6
CONTINUOUS
370
18
100
AcDb2dPolyline
 66
1
 70
129
  0
VERTEX
  5
1E2
100
AcDbEntity
  8
0
100
AcDbVertex
100
AcDb2dVertex
 10
7509886.06000026688
 20
5702110.40999968257
  0
VERTEX
  5
1E3
100
AcDbEntity
  8
0
100
AcDbVertex
100
AcDb2dVertex
 10
7509870.93000026699
 20
5702188.53999968339
  0
VERTEX
  5
1E4
100
AcDbEntity
  8
0
100
AcDbVertex
100
AcDb2dVertex
 10
7509883.90000026766
 20
5702205.68999968283
  0
VERTEX
  5
1E5
100
AcDbEntity
  8
0
100
AcDbVertex
100
AcDb2dVertex
 10
7509923.82000026852
 20
5702212.49999968242
  0
VERTEX
  5
1E6
100
AcDbEntity
  8
0
100
AcDbVertex
100
AcDb2dVertex
 10
7509924.74000026751
 20
5702212.85999968275
  0
VERTEX
  5
1E7
100
AcDbEntity
  8
0
100
AcDbVertex
100
AcDb2dVertex
 10
7509964.79000026826
 20
5702127.52999968361
  0
SEQEND
  5
1E8
100
AcDbEntity
  8
0
  0
POLYLINE
  5
1E9
100
AcDbEntity
  8
0
  6
CONTINUOUS
370
18
100
AcDb2dPolyline
 66
1
 70
129
  0
VERTEX
  5
1EA
100
AcDbEntity
  8
0
100
AcDbVertex
100
AcDb2dVertex
 10
7509972.98000026867
 20
5702129.1299996851
  0
VERTEX
  5
1EB
100
AcDbEntity
  8
0
100
AcDbVertex
100
AcDb2dVertex
 10
7509932.11000026762
 20
5702215.7299996838
  0
VERTEX
  5
1EC
100
AcDbEntity
  8
0
100
AcDbVertex
100
AcDb2dVertex
 10
7509939.59000026807
 20
5702218.64999968372
  0
VERTEX
  5
1ED
100
AcDbEntity
  8
0
100
AcDbVertex
100
AcDb2dVertex
 10
7509979.54000026826
 20
5702130.41999968141
  0
SEQEND
  5
1EE
100
AcDbEntity
  8
0
  0
POLYLINE
  5
1EF
100
AcDbEntity
  8
0
  6
CONTINUOUS
370
18
100
AcDb2dPolyline
 66
1
 70
129
  0
VERTEX
  5
1F0
100
AcDbEntity
  8
0
100
AcDbVertex
100
AcDb2dVertex
 10
7509964.79000026826
 20
5702127.52999968361
  0
VERTEX
  5
1F1
100
AcDbEntity
  8
0
100
AcDbVertex
100
AcDb2dVertex
 10
7509924.74000026751
 20
5702212.85999968275
  0
VERTEX
  5
1F2
100
AcDbEntity
  8
0
100
AcDbVertex
100
AcDb2dVertex
 10
7509928.98000026867
 20
5702214.5099996822
  0
VERTEX
  5
1F3
100
AcDbEntity
  8
0
100
AcDbVertex
100
AcDb2dVertex
 10
7509969.57000026852
 20
5702128.45999968331
  0
SEQEND
  5
1F4
100
AcDbEntity
  8
0
  0
POLYLINE
  5
1F5
100
AcDbEntity
  8
0
  6
CONTINUOUS
370
18
100
AcDb2dPolyline
 66
1
 70
129
  0
VERTEX
  5
1F6
100
AcDbEntity
  8
0
100
AcDbVertex
100
AcDb2dVertex
 10
7509939.59000026807
 20
5702218.64999968372
  0
VERTEX
  5
1F7
100
AcDbEntity
  8
0
100
AcDbVertex
100
AcDb2dVertex
 10
7509946.3000002671
 20
5702221.25999968406
  0
VERTEX
  5
1F8
100
AcDbEntity
  8
0
100
AcDbVertex
100
AcDb2dVertex
 10
7509986.56000026781
 20
5702131.78999968059
  0
VERTEX
  5
1F9
100
AcDbEntity
  8
0
100
AcDbVertex
100
AcDb2dVertex
 10
7509979.54000026826
 20
5702130.41999968141
  0
SEQEND
  5
1FA
100
AcDbEntity
  8
0
  0
POLYLINE
  5
1FB
100
AcDbEntity
  8
0
  6
CONTINUOUS
370
18
100
AcDb2dPolyline
 66
1
 70
129
  0
VERTEX
  5
1FC
100
AcDbEntity
  8
0
100
AcDbVertex
100
AcDb2dVertex
 10
7509969.57000026852
 20
5702128.45999968331
  0
VERTEX
  5
1FD
100
AcDbEntity
  8
0
100
AcDbVertex
100
AcDb2dVertex
 10
7509928.98000026867
 20
5702214.5099996822
  0
VERTEX
  5
1FE
100
AcDbEntity
  8
0
100
AcDbVertex
100
AcDb2dVertex
 10
7509932.11000026762
 20
5702215.7299996838
  0
VERTEX
  5
1FF
100
AcDbEntity
  8
0
100
AcDbVertex
100
AcDb2dVertex
 10
7509972.98000026867
 20
5702129.1299996851
  0
SEQEND
  5
200
100
AcDbEntity
  8
0
  0
POLYLINE
  5
201
100
AcDbEntity
  8
0
  6
CONTINUOUS
370
18
100
AcDb2dPolyline
 66
1
 70
129
  0
VERTEX
  5
202
100
AcDbEntity
  8
0
100
AcDbVertex
100
AcDb2dVertex
 10
7510061.65261626802
 20
5702028.4173996821
  0
VERTEX
  5
203
100
AcDbEntity
  8
0
100
AcDbVertex
100
AcDb2dVertex
 10
7510052.46329426952
 20
5702023.59608068224
  0
VERTEX
  5
204
100
AcDbEntity
  8
0
100
AcDbVertex
100
AcDb2dVertex
 10
7510050.78350226954
 20
5702027.03559868131
  0
VERTEX
  5
205
100
AcDbEntity
  8
0
100
AcDbVertex
100
AcDb2dVertex
 10
7510059.94283726905
 20
5702032.15681668371
  0
SEQEND
  5
206
100
AcDbEntity
  8
0
  0
POLYLINE
  5
207
100
AcDbEntity
  8
0
  6
CONTINUOUS
370
18
100
AcDb2dPolyline
 66
1
 70
129
  0
VERTEX
  5
208
100
AcDbEntity
  8
0
100
AcDbVertex
100
AcDb2dVertex
 10
7510052.46329426952
 20
5702023.59608068224
  0
VERTEX
  5
209
100
AcDbEntity
  8
0
100
AcDbVertex
100
AcDb2dVertex
 10
7510039.06418526825
 20
5702016.59411668312
  0
VERTEX
  5
20A
100
AcDbEntity
  8
0
100
AcDbVertex
100
AcDb2dVertex
 10
7510038.04429826792
 20
5702018.16390368436
  0
VERTEX
  5
20B
100
AcDbEntity
  8
0
100
AcDbVertex
100
AcDb2dVertex
 10
7510037.71433826815
 20
5702018.81382668111
  0
VERTEX
  5
20C
100
AcDbEntity
  8
0
100
AcDbVertex
100
AcDb2dVertex
 10
7510037.35438126884
 20
5702019.5337406816
  0
VERTEX
  5
20D
100
AcDbEntity
  8
0
100
AcDbVertex
100
AcDb2dVertex
 10
7510050.78350226954
 20
5702027.03559868131
  0
SEQEND
  5
20E
100
AcDbEntity
  8
0
  0
POLYLINE
  5
20F
100
AcDbEntity
  8
0
  6
CONTINUOUS
370
18
100
AcDb2dPolyline
 66
1
 70
129
  0
VERTEX
  5
210
100
AcDbEntity
  8
0
100
AcDbVertex
100
AcDb2dVertex
 10
7510059.94283726905
 20
5702032.15681668371
  0
VERTEX
  5
211
100
AcDbEntity
  8
0
100
AcDbVertex
100
AcDb2dVertex
 10
7510050.78350226954
 20
5702027.03559868131
  0
VERTEX
  5
212
100
AcDbEntity
  8
0
100
AcDbVertex
100
AcDb2dVertex
 10
7510015.92797826789
 20
5702098.3716866821
  0
VERTEX
  5
213
100
AcDbEntity
  8
0
100
AcDbVertex
100
AcDb2dVertex
 10
7510027.0373412678
 20
5702104.20131068304
  0
SEQEND
  5
214
100
AcDbEntity
  8
0
  0
POLYLINE
  5
215
100
AcDbEntity
  8
0
  6
CONTINUOUS
370
18
100
AcDb2dPolyline
 66
1
 70
129
  0
VERTEX
  5
216
100
AcDbEntity
  8
0
100
AcDbVertex
100
AcDb2dVertex
 10
7510067.74214526825
 20
5702031.60811568331
  0
VERTEX
  5
217
100
AcDbEntity
  8
0
100
AcDbVertex
100
AcDb2dVertex
 10
7510061.65261626802
 20
5702028.4173996821
  0
VERTEX
  5
218
100
AcDbEntity
  8
0
100
AcDbVertex
100
AcDb2dVertex
 10
7510059.94283726905
 20
5702032.15681668371
  0
VERTEX
  5
219
100
AcDbEntity
  8
0
100
AcDbVertex
100
AcDb2dVertex
 10
7510027.0373412678
 20
5702104.20131068304
  0
VERTEX
  5
21A
100
AcDbEntity
  8
0
100
AcDbVertex
100
AcDb2dVertex
 10
7510034.38691626862
 20
5702108.0610036822
  0
VERTEX
  5
21B
100
AcDbEntity
  8
0
100
AcDbVertex
100
AcDb2dVertex
 10
7510066.02237326931
 20
5702035.55745668244
  0
SEQEND
  5
21C
100
AcDbEntity
  8
0
  0
POLYLINE
  5
21D
100
AcDbEntity
  8
zakres
  6
ByLayer
370
50
100
AcDb2dPolyline
 66
1
 70
129
  0
VERTEX
  5
21E
100
AcDbEntity
  8
zakres
100
AcDbVertex
100
AcDb2dVertex
 10
7509859.35888511036
 20
5702064.81993680075
  0
VERTEX
  5
21F
100
AcDbEntity
  8
zakres
100
AcDbVertex
100
AcDb2dVertex
 10
7510036.49472754728
 20
5702099.69422030728
  0
VERTEX
  5
220
100
AcDbEntity
  8
zakres
100
AcDbVertex
100
AcDb2dVertex
 10
7510084.25163364317
 20
5702003.93437940441
  0
VERTEX
  5
221
100
AcDbEntity
  8
zakres
100
AcDbVertex
100
AcDb2dVertex
 10
7509892.49521277566
 20
5701896.49516617879
  0
SEQEND
  5
222
100
AcDbEntity
  8
zakres
  0
TEXT
  5
223
100
AcDbEntity
  8
0
370
20
100
AcDbText
 10
7509959.5700000003
 20
5702002.54890134279
 40
1.00
  1
2/47
 50
0.00
 41
0.66
  7
STANDARD
 72
1
 11
7509960.5700000003
 21
5702003.54890134279
100
AcDbText
 73
3
  0
TEXT
  5
224
100
AcDbEntity
  8
0
370
20
100
AcDbText
 10
7509941.69999999832
 20
5702064.49999999907
 40
1.00
  1
2/46
 50
0.00
 41
0.66
  7
STANDARD
 72
1
 11
7509942.69999999832
 21
5702065.49999999907
100
AcDbText
 73
3
  0
TEXT
  5
225
100
AcDbEntity
  8
0
370
20
100
AcDbText
 10
7509994.03000026941
 20
5702093.95499968156
 40
1.00
  1
2/62
 50
0.00
 41
0.66
  7
STANDARD
 72
1
 11
7509995.03000026941
 21
5702094.95499968156
100
AcDbText
 73
3
  0
TEXT
  5
226
100
AcDbEntity
  8
0
370
20
100
AcDbText
 10
7510021.27214926854
 20
5702035.36999968253
 40
1.00
  1
2/63
 50
0.00
 41
0.66
  7
STANDARD
 72
1
 11
7510022.27214926854
 21
5702036.36999968253
100
AcDbText
 73
3
  0
TEXT
  5
227
100
AcDbEntity
  8
0
370
20
100
AcDbText
 10
7510010.59000013396
 20
5702031.9349998422
 40
1.00
  1
2/52
 50
0.00
 41
0.66
  7
STANDARD
 72
1
 11
7510011.59000013396
 21
5702032.9349998422
100
AcDbText
 73
3
  0
TEXT
  5
228
100
AcDbEntity
  8
0
370
20
100
AcDbText
 10
7509982.93000026792
 20
5702091.46499984153
 40
1.00
  1
2/51
 50
0.00
 41
0.66
  7
STANDARD
 72
1
 11
7509983.93000026792
 21
5702092.46499984153
100
AcDbText
 73
3
  0
TEXT
  5
229
100
AcDbEntity
  8
0
370
20
100
AcDbText
 10
7509987.03500026837
 20
5702092.28499968443
 40
1.00
  1
2/56
 50
0.00
 41
0.66
  7
STANDARD
 72
1
 11
7509988.03500026837
 21
5702093.28499968443
100
AcDbText
 73
3
  0
TEXT
  5
22A
100
AcDbEntity
  8
0
370
20
100
AcDbText
 10
7510014.54000026826
 20
5702033.49999968242
 40
1.00
  1
2/57
 50
0.00
 41
0.66
  7
STANDARD
 72
1
 11
7510015.54000026826
 21
5702034.49999968242
100
AcDbText
 73
3
  0
TEXT
  5
22B
100
AcDbEntity
  8
0
370
20
100
AcDbText
 10
7509976.79999999795
 20
5701974.79999999888
 40
1.00
  1
63/2
 50
0.00
 41
0.66
  7
STANDARD
 72
1
 11
7509977.79999999795
 21
5701975.79999999888
100
AcDbText
 73
3
  0
TEXT
  5
22C
100
AcDbEntity
  8
0
370
20
100
AcDbText
 10
7509896.73057684023
 20
5701990.00280119758
 40
1.00
  1
1
 50
281.10
 41
0.66
  7
STANDARD
 72
1
 11
7509897.75999999605
 21
5701989.94999999739
100
AcDbText
 73
3
  0
TEXT
  5
22D
100
AcDbEntity
  8
0
370
20
100
AcDbText
 10
7509951.99999999814
 20
5701939.39999999851
 40
1.00
  1
2/14
 50
0.00
 41
0.66
  7
STANDARD
 72
1
 11
7509952.99999999814
 21
5701940.39999999851
100
AcDbText
 73
3
  0
TEXT
  5
22E
100
AcDbEntity
  8
0
370
20
100
AcDbText
 10
7509945.45048826374
 20
5701946.04716618173
 40
1.00
  1
2/13
 50
0.00
 41
0.66
  7
STANDARD
 72
1
 11
7509946.45048826374
 21
5701947.04716618173
100
AcDbText
 73
3
  0
TEXT
  5
22F
100
AcDbEntity
  8
0
370
20
100
AcDbText
 10
7509994.4255827684
 20
5701973.09349718224
 40
1.00
  1
7/10
 50
0.00
 41
0.66
  7
STANDARD
 72
1
 11
7509995.4255827684
 21
5701974.09349718224
100
AcDbText
 73
3
  0
TEXT
  5
230
100
AcDbEntity
  8
0
370
20
100
AcDbText
 10
7509995.04999999795
 20
5701959.69999999832
 40
1.00
  1
7/8
 50
0.00
 41
0.66
  7
STANDARD
 72
1
 11
7509995.79999999795
 21
5701960.69999999832
100
AcDbText
 73
3
  0
TEXT
  5
231
100
AcDbEntity
  8
0
370
20
100
AcDbText
 10
7510016.6498027686
 20
5701985.41275418364
 40
1.00
  1
8/3
 50
0.00
 41
0.66
  7
STANDARD
 72
1
 11
7510017.3998027686
 21
5701986.41275418364
100
AcDbText
 73
3
  0
TEXT
  5
232
100
AcDbEntity
  8
0
370
20
100
AcDbText
 10
7510018.54999999795
 20
5701975.0999999987
 40
1.00
  1
8/8
 50
0.00
 41
0.66
  7
STANDARD
 72
1
 11
7510019.29999999795
 21
5701976.0999999987
100
AcDbText
 73
3
  0
TEXT
  5
233
100
AcDbEntity
  8
0
370
20
100
AcDbText
 10
7510033.14999999851
 20
5701981.79999999888
 40
1.00
  1
9/1
 50
0.00
 41
0.66
  7
STANDARD
 72
1
 11
7510033.89999999851
 21
5701982.79999999888
100
AcDbText
 73
3
  0
TEXT
  5
234
100
AcDbEntity
  8
0
370
20
100
AcDbText
 10
7510045.0999999987
 20
5701989.69999999832
 40
1.00
  1
12/2
 50
0.00
 41
0.66
  7
STANDARD
 72
1
 11
7510046.0999999987
 21
5701990.69999999832
100
AcDbText
 73
3
  0
TEXT
  5
235
100
AcDbEntity
  8
0
370
20
100
AcDbText
 10
7510044.03837026935
 20
5702000.81518468447
 40
1.00
  1
12/1
 50
0.00
 41
0.66
  7
STANDARD
 72
1
 11
7510045.03837026935
 21
5702001.81518468447
100
AcDbText
 73
3
  0
TEXT
  5
236
100
AcDbEntity
  8
0
370
20
100
AcDbText
 10
7509910.04999999795
 20
5701916.0999999987
 40
1.00
  1
1
 50
0.00
 41
0.66
  7
STANDARD
 72
1
 11
7509910.29999999795
 21
5701917.0999999987
100
AcDbText
 73
3
  0
TEXT
  5
237
100
AcDbEntity
  8
0
370
20
100
AcDbText
 10
7510026.72107776906
 20
5702057.95271368138
 40
1.00
  1
7/2
 50
0.00
 41
0.66
  7
STANDARD
 72
1
 11
7510027.47107776906
 21
5702058.95271368138
100
AcDbText
 73
3
  0
TEXT
  5
238
100
AcDbEntity
  8
0
370
20
100
AcDbText
 10
7509989.34345826786
 20
5702162.23597818241
 40
1.00
  1
2/85
 50
0.00
 41
0.66
  7
STANDARD
 72
1
 11
7509990.34345826786
 21
5702163.2359781824
100
AcDbText
 73
3
  0
TEXT
  5
239
100
AcDbEntity
  8
0
370
20
100
AcDbText
 10
7510061.19371176884
 20
5702073.58908618242
 40
1.00
  1
10
 50
0.00
 41
0.66
  7
STANDARD
 72
1
 11
7510061.69371176884
 21
5702074.58908618242
100
AcDbText
 73
3
  0
TEXT
  5
23A
100
AcDbEntity
  8
0
370
20
100
AcDbText
 10
7509916.86000026762
 20
5702160.63499968313
 40
1.00
  1
2/45
 50
0.00
 41
0.66
  7
STANDARD
 72
1
 11
7509917.86000026762
 21
5702161.63499968313
100
AcDbText
 73
3
  0
TEXT
  5
23B
100
AcDbEntity
  8
0
370
20
100
AcDbText
 10
7509954.82500026748
 20
5702172.88999968395
 40
1.00
  1
2/60
 50
0.00
 41
0.66
  7
STANDARD
 72
1
 11
7509955.82500026748
 21
5702173.88999968395
100
AcDbText
 73
3
  0
TEXT
  5
23C
100
AcDbEntity
  8
0
370
20
100
AcDbText
 10
7509946.15500026755
 20
5702170.0199996829
 40
1.00
  1
2/50
 50
0.00
 41
0.66
  7
STANDARD
 72
1
 11
7509947.15500026755
 21
5702171.0199996829
100
AcDbText
 73
3
  0
TEXT
  5
23D
100
AcDbEntity
  8
0
370
20
100
AcDbText
 10
7509962.07500026748
 20
5702174.8399996832
 40
1.00
  1
2/61
 50
0.00
 41
0.66
  7
STANDARD
 72
1
 11
7509963.07500026748
 21
5702175.8399996832
100
AcDbText
 73
3
  0
TEXT
  5
23E
100
AcDbEntity
  8
0
370
20
100
AcDbText
 10
7509949.98000026867
 20
5702171.09499968402
 40
1.00
  1
2/55
 50
0.00
 41
0.66
  7
STANDARD
 72
1
 11
7509950.98000026867
 21
5702172.09499968402
100
AcDbText
 73
3
  0
TEXT
  5
23F
100
AcDbEntity
  8
0
370
20
100
AcDbText
 10
7510055.46805926878
 20
5702026.87644868344
 40
1.00
  1
8/1
 50
0.00
 41
0.66
  7
STANDARD
 72
1
 11
7510056.21805926878
 21
5702027.87644868344
100
AcDbText
 73
3
  0
TEXT
  5
240
100
AcDbEntity
  8
0
370
20
100
AcDbText
 10
7510044.15883776918
 20
5702020.81485768221
 40
1.00
  1
7/1
 50
0.00
 41
0.66
  7
STANDARD
 72
1
 11
7510044.90883776918
 21
5702021.81485768221
100
AcDbText
 73
3
  0
TEXT
  5
241
100
AcDbEntity
  8
0
370
20
100
AcDbText
 10
7510037.18540776894
 20
5702064.61845468171
 40
1.00
  1
8/2
 50
0.00
 41
0.66
  7
STANDARD
 72
1
 11
7510037.93540776894
 21
5702065.61845468171
100
AcDbText
 73
3
  0
TEXT
  5
242
100
AcDbEntity
  8
0
370
20
100
AcDbText
 10
7510047.13974326849
 20
5702067.23920168169
 40
1.00
  1
9
 50
0.00
 41
0.66
  7
STANDARD
 72
1
 11
7510047.38974326849
 21
5702068.23920168169
100
AcDbText
 73
3
  0
ENDSEC
  0
SECTION
  2
OBJECTS
  0
DICTIONARY
  5
243
330
0
100
AcDbDictionary
280
0
281
1
  3
ACAD_GROUP
350
244
  3
ACAD_LAYOUT
350
245
  3
ACAD_MLINESTYLE
350
246
  3
ACAD_PLOTSETTINGS
350
247
  3
ACAD_PLOTSTYLENAME
350
248
  0
DICTIONARY
  5
244
102
{ACAD_REACTORS
330
243
102
}
330
243
100
AcDbDictionary
280
0
281
1
  0
DICTIONARY
  5
245
102
{ACAD_REACTORS
330
243
102
}
330
243
100
AcDbDictionary
280
0
281
1
  3
Layout
350
1A
  3
Model
350
18
  0
DICTIONARY
  5
246
102
{ACAD_REACTORS
330
243
102
}
330
243
100
AcDbDictionary
280
0
281
1
  3
Standard
350
249
  0
DICTIONARY
  5
247
102
{ACAD_REACTORS
330
243
102
}
330
243
100
AcDbDictionary
280
0
281
1
  0
ACDBDICTIONARYWDFLT
  5
248
102
{ACAD_REACTORS
330
243
102
}
330
243
100
AcDbDictionary
281
1
  3
Normal
350
A
100
AcDbDictionaryWithDefault
340
A
  0
LAYOUT
  5
1A
100
AcDbPlotSettings
  1

  2

  4

  6

 40
0.0
 41
0.0
 42
0.0
 43
0.0
 44
0.0
 45
0.0
 46
0.0
 47
0.0
 48
0.0
 49
0.0
140
0.0
141
0.0
142
1.0
143
1.0
 70
688
 72
1
 73
0
 74
5
  7

 75
0
147
1.0
148
0.0
149
0.0
100
AcDbLayout
  1
Layout
 70
1
 71
1
 10
0.0
 20
0.0
 11
420.0
 21
297.0
 12
0.0
 22
0.0
 32
0.0
 14
100000000000000000000.0
 24
100000000000000000000.0
 34
100000000000000000000.0
 15
-100000000000000000000.0
 25
-100000000000000000000.0
 35
-100000000000000000000.0
146
0.0
 13
0.0
 23
0.0
 33
0.0
 16
1.0
 26
0.0
 36
0.0
 17
0.0
 27
1.0
 37
0.0
 76
0
330
19
  0
LAYOUT
  5
18
100
AcDbPlotSettings
  1

  2

  4

  6

 40
0.0
 41
0.0
 42
0.0
 43
0.0
 44
0.0
 45
0.0
 46
0.0
 47
0.0
 48
0.0
 49
0.0
140
0.0
141
0.0
142
1.0
143
1.0
 70
1712
 72
1
 73
0
 74
0
  7

 75
0
147
1.0
148
0.0
149
0.0
100
AcDbLayout
  1
Model
 70
1
 71
0
 10
0.0
 20
0.0
 11
12.0
 21
9.0
 12
0.0
 22
0.0
 32
0.0
 14
0.0
 24
0.0
 34
0.0
 15
0.0
 25
0.0
 35
0.0
146
0.0
 13
0.0
 23
0.0
 33
0.0
 16
1.0
 26
0.0
 36
0.0
 17
0.0
 27
1.0
 37
0.0
 76
0
330
17
  0
MLINESTYLE
  5
249
102
{ACAD_REACTORS
330
246
102
}
330
246
100
AcDbMlineStyle
  2
Standard
 70
0
  3

 62
256
 51
90.0
 52
90.0
  2
Standard
 71
2
 49
0.5
 62
256
  6
ByLayer
 49
-0.5
 62
256
  6
ByLayer
  0
ACDBPLACEHOLDER
  5
A
  0
ENDSEC
  0
EOF
